>
 >
At The Mercy

At The Mercy Guitar Tabs

Paul Mccartney - At The Mercy chords, tabs, tablatures, lyrics

Guitar lessons | Add/correct | Request | Top 50 tabs Artists:  A B C D E F G H I J K L M N O P Q R S T U V W X Y Z 0-9

At The Mercy Guitar Tabs – Paul Mccartney

CD, Sheet music, Poster

Do you like At The Mercy? Share with your friends now
ChordsChords v2TabsUkulele
----------------------------------------------------------------

    PAUL MCCARTNEY - AT THE MERCY From CHAOS AND CREATION album.
                     Released on 13th September 2005.

----------------------------------------------------------------







At the mercy, at the mercy 
At the mercy of a busy road 
Who can handle such a heavy load? 

At the mercy, At the mercy 
At the mercy of a busy day 
We can think of nothing more to say 

If you show me love I won't refuse 
I know you'd never make me choose 
Between the love I've got and the love I'd lose 

Sometimes I'd rather run and hide 
Then stay and face the fear inside 

At the mercy, at the mercy 
At the mercy of a busy day  
Who can bear to turn their head away? 

At the mercy, at the mercy 
At the mercy of a busy road 
We can watch the universe explode 

If you take me up I won't say no 
I guess you'd rather see me grow 
Into a better man than the one you know 

Sometimes my head is hanging low 
It's time to get on with the show 

At the mercy, at the mercy 
At the mercy of a busy day 
I can think of nothing more to say






  C7          Csus4   C                       Csus4   C
e|------- ------- ------- -------|------- ------- ------- -------|
B|-------------------------------|-------------------------------|
G|3-------------------0----------|3------------------------------|
D|2---2-------3------------------|2---2-------3-------2----------|
A|3------------------------------|3------------------------------|
E|-------------------------------|-------------------------------|
  At  the     mercy,             at  the     mercy, 



  D+5                             D
e|------- ------- ------- -------|------- ------- ------- -------|
B|3-----------3-------3---3---3--|3-----------3-----------3------|
G|3-----------3-------3---3---3--|2-----------2-----------2------|
D|4-----------4-------4---4---4--|4-----------4-----------4------|
A|5-----------------------5------|5-------------------5-------5--|
E|-------------------------------|-------------------------------|
  at  the mercy   of  a   busy    road 



  D-5                         D   D6
e|2------ ----2-- ------- 2------|2------ ----2-- ------- 2------|
B|3-----------3-----------3------|3-----------3-----------3------|
G|1-----------1-------1---1---2--|4-----------4-----------4------|
D|0-----------------------0------|0---------------------------0--|
A|-------------------------------|-------------------------------|
E|-------------------------------|-------------------------------|
  Who can handle  such a  heavy   load? 



  Em          Emsus2  Em          Edim
e|------- ------- ------- -------|------- ------- ------- -------|
B|0-----------0-------0----------|-------------------------------|
G|0-----------0-------0----------|3-----------3-------3----------|
D|2---2-------4-------2-------2--|5-----------4-------5----------|
A|-------------------------------|7--7-----------------------7---|
E|0------------------------------|-------------------------------|
  At  the     mercy,              at  the     mercy, 



  D+5                             D
e|------- ------- ------- -------|------- ------- ------- -------|
B|3-----------3-------3---3---3--|3-----------3-----------3------|
G|3-----------3-------3---3---3--|2-----------2-----------2------|
D|4-----------4-------4---4---4--|4-----------4-----------4------|
A|5-----------------------5------|5-------------------5-------5--|
E|-------------------------------|-------------------------------|
  At  the mercy   of  a   busy    day, 



  D-5                             Dmsus4
e|2------ ----2-- ------- 2------|------- ------- ------- -------|
B|3-----------3-----------3------|-------------------------------|
G|1-----------1-------1---1------|0-----------0-----------0------|
D|0-----------0-----------0------|3-----------3-----------3------|
A|-------------------------------|5-------5-----------5-------5--|
E|-------------------------------|-------------------------------|
  We can think of nothing more to say 



  D
e|------- ------- ------- -------|------- ------- ------- -------|
B|------------3------------------|-------------------------------|
G|2------------------------------|2------------------------------|
D|3H4---------------------0---0--|----0---0---0---0---0---0---0--|
A|5------------------------------|-------------------------------|
E|-------------------------------|-------------------------------|




                                  F#m
e|2------ ----3-- ------- 2------|------- ------- ------- -------|
B|3-----------2-----------3------|----2-------2-----------2------|
G|2-----------3-----------2------|2-----------2-----------2------|
D|0-----------0-----------0------|4-----------4-----------4------|
A|----------------------------0--|-------------------------------|
E|-------------------------------|2-------------------2----------|
  If  you     show    me      love,       I   won't       refuse 
e|------- ------- ------- -------|------- ------- ------- -------|
B|-------------------------------|-------------------------------|
G|-------------------------------|-------------------------------|
D|0------------------------------|------------------------4------|
A|-------------------------------|4------------------------------|
E|-------------------------------|-------------------------------|




  Bm                              Bm-5
e|2------ 2------ 2------ 2------|------- ------- ------- -------|
B|3-------3-------3-------3------|6-------6-------6-------6------|
G|----4-------4-------4-------4--|7-------7-------7-------7------|
D|-------------------------------|----9-------9-------9-------9--|
A|2------------------------------|-------------------------------|
E|-------------------------------|7---------------------------5--|
                                 (T)  I  know you'd never make me 
e|------- ------- ------- -------|------- ------- ------- -------|
B|-------------------------------|-------------------------------|
G|-------------------------------|-------------------------------|
D|-------------------------------|3------------------------------|
A|2------------------------------|----------------------------0--|
E|-------------------------------|-------------------------------|




  G7                              D/F#            F#/E
e|3------ 3------ 3------ 3------|------- 2------ ------- 0------|
B|6-------6-------6-------6------|--------3---------------2------|
G|----4-------4-------4-------4--|----2-------2-----------3------|
D|-------------------------------|--------------------4-------4--|
A|-------------------------------|-------------------------------|
E|3------------------------------|2---------------0--------------|
  choose                              between the love I've   got 
e|------- ------- ------- -------|------- ------- ------- -------|
B|-------------------------------|-------------------------------|
G|-------------------------------|-------------------------------|
D|-------------------------------|4---------------2--------------|
A|-------------------------------|-------------------------------|
E|3------------------------------|-------------------------------|




  Bm              F#              Bm
e|------- ------- ------- -------|------- ------- ------- -------|
B|--------3---------------2------|3-----------------------3------|
G|--------4---------------3------|4-----------------------4------|
D|----4-------4-------4-------4--|4-----------------------4------|
A|2------------------------------|2-----------------------2------|
E|----------------2--------------|-------------------------------|
          and the love I'd    lose 
e|------- ------- ------- -------|------- ------- ------- -------|
B|-------------------------------|----------------3--------------|
G|-------------------------------|-------------------------------|
D|0------------------------------|-------------------------------|
A|----------------4--------------|2------------------------------|
E|-------------------------------|-------------------------------|




  Bm-5                            Bm
e|------- ------- ------- -------|------- ------- ------- -------|
B|3-----------3-----------3------|3-----------3-----------3------|
G|4-----------4-----------4------|4-----------4-----------4------|
D|3-----------3-----------3------|4-----------4-----------4------|
A|2------------------------------|2-----------------------2------|
E|-------------------------------|-------------------------------|
     Sometimes I'd rather run and hide
e|------- ------- ------- -------|------- ------- ------- -------|
B|-------------------------------|-------------------------------|
G|-------------------------------|----------------4--------------|
D|3---------------------------3--|4-----------------------4------|
A|-------------------------------|-------------------------------|
E|-------------------------------|-------------------------------|




  Bm-5                            Bm     
e|------- ------- ------- -------|------- ------- ------- -------|
B|3-----------3------------------|3-----------3-----------3------|
G|4-----------4------------------|4-----------4-----------4------|
D|3-----------3------------------|4-----------4-----------4------|
A|2------------------------------|2-----------------------2------|
E|-------------------------------|-------------------------------|  
    Then stay and face the fear inside 
e|------- ------- ------- -------|------- ------- ------- -------|
B|-------------------------------|-------------------------------|
G|-------------------------------|-------------------------------|
D|3------------------------------|4------------------------------|
A|-------------------------------|-------------------------------|
E|-------------------------------|-------------------------------|




  C7          Csus4   C                       Csus4   C
e|------- ------- ------- -------|------- ------- ------- -------|
B|-------------------------------|-------------------------------|
G|3-------------------0----------|3------------------------------|
D|2---2-------3------------------|2---2-------3-------2----------|
A|3------------------------------|3------------------------------|
E|-------------------------------|-------------------------------|
  At  the     mercy,              at  the     mercy, 
e|------- ------- ------- -------|------- ------- ------- -------|
B|-------------------------------|-------------------------------|
G|-------------------------------|-------------------------------|
D|----2-------3------------------|----2-------3-------2----------|
A|-------------------------------|-------------------------------|
E|-------------------------------|-------------------------------|




  D+5                             D
e|------- ------- ------- -------|------- ------- ------- -------|
B|3-----------3-------3---3---3--|3-----------3-----------3------|
G|3-----------3-------3---3---3--|2-----------2-----------2------|
D|4-----------4-------4---4---4--|4-----------4-----------4------|
A|5-----------------------5------|5-------------------5-------5--|
E|-------------------------------|-------------------------------|
  at  the mercy   of  a   busy    day 
e|------- ------- ------- -------|------- ------- ------- -------|
B|3------------------------------|-------------------------------|
G|3-----------------------3------|2------------------------------|
D|4---------------------------4--|-------------------------------|
A|-------------------------------|-------------------------------|
E|-------------------------------|-------------------------------|




  D-5                             D6
e|2------ ----2-- ------- 2------|2------ ----2-- ------- 2------|
B|3-----------3-----------3------|3-----------3-----------3------|
G|1-----------1-------1---1---2--|4-----------4-----------4------|
D|0-----------------------0------|0---------------------------0--|
A|-------------------------------|-------------------------------|
E|-------------------------------|-------------------------------|
  Who can bear to turn their head 
                              away? 
e|------- ------- ------- -------|------- ------- ------- -------|
B|-------------------------------|-------------------------------|
G|-------------------------------|----------------4--------------|
D|-------------------------------|--------4-----------4----------|
A|-------------------------------|----5-------5-----------5------|
E|-------------------------------|-------------------------------|




  Em          Emsus2  Em          Edim
e|------- ------- ------- -------|------- ------- ------- -------|
B|0-----------0-------0----------|-------------------------------|
G|0-----------0-------0----------|3-----------3-------3----------|
D|2---2-------4-------2----------|5-----------4-------5----------|
A|-------------------------------|7---7-------------------7------|
E|0------------------------------|-------------------------------|
  At  the     mercy,              at  the     mercy, 
e|------- ------- ------- -------|------- ------- ------- -------|
B|-------------------------------|-------------------------------|
G|-------------------------------|3------------------------------|
D|2------------------------------|-------------------------------|
A|-------------------------------|-------------------------------|
E|-------------------------------|-------------------------------|




  D+5                             D
e|------- ------- ------- -------|------- ------- ------- -------|
B|3-----------3-----------3------|3-----------3-----------3------|
G|3-----------3-----------3------|2-----------2-----------2------|
D|4-----------4-----------4------|4-----------4-----------4------|
A|5-----------------------5------|5-------------------5-------5--|
E|-------------------------------|-------------------------------|
  At  the mercy   of  a   busy    road
e|------- ------- ------- -------|------- ------- ------- -------|
B|3------------------------------|-------------------------------|
G|3------------------------------|----------------------------2--|
D|4------------------------------|------------------------4------|
A|5------------------------------|--------------------5----------|
E|-------------------------------|-------------------------------|




  D-5                             Dmsus4
e|2------ ----2-- ------- 2------|------- ------- ------- -------|
B|3-----------3-----------3------|-------------------------------|
G|1-----------1-------1---1------|0-----------0-----------0------|
D|0-----------0-----------0------|3-----------3-----------3------|
A|-------------------------------|5-------5-----------5-------5--|
E|-------------------------------|-------------------------------|
  We  can watch the universe  explode 
e|------- ------- ------- -------|------- ------- ------- -------|
B|-------------------------------|-------------------------------|
G|1------------------------------|-------------------------------|
D|-------------------------------|-------------------------------|
A|-------------------------------|-------------------------------|
E|-------------------------------|-------------------------------|



  D
e|------- ------- ------- -------|------- ------- ------- -------|
B|------------3------------------|-------------------------------|
G|2------------------------------|-------------------------------|
D|3H4---------------------0------|0-----------0-----------0------|
A|5------------------------------|-------------------------------|
E|-------------------------------|-------------------------------|




  D       A       G       D       G       D       A
e|2------ ------- ------- -------|------- ------- ------- -------|
B|3-------2-------3-------3------|3-------3-------2--------------|
G|2-------2-------0-------2------|0-------2-------2--------------|
D|0-------2-------0-------0------|0-------0-------2--------------|
A|--------4-------2-------0------|-------------------------------|
E|-------------------------------|3-------2-------0--------------|




                  D       A       G       D       G       D       
e|------- ------- 2------ -------|------- ------- ------- -------|
B|----------------3-------2------|3-------3-------3-------3------|
G|----------------2-------2------|0-------2-------0-------2------|
D|----------------0-------2------|0-------0-------0-------0------|
A|------------------------4------|2-------0----------------------|
E|-------------------------------|----------------3-------2------|




  A       D
e|------- ------- ------- -------|------- ------- ------- -------|
B|2-------3----------------------|-------------------------------|
G|2-------2----------------------|-------------------------------|
D|2-------0----------------------|-------------------------------|
A|-------------------------------|-------------------------------|
E|0-------2----------------------|-------------------------------| 




                                  F#m
e|------- ------- ------- -------|------- ------- ------- -------|
B|3-----------2-----------2------|2-----------2-----------2------|
G|2-----------3-----------3------|2-----------2-----------2------|
D|0-----------0-----------0------|4-----------4-----------4------|
A|----------------------------0--|-------------------------------|
E|-------------------------------|2-----------------------2------|
  If  you     take    me      up,         I won't     say     no 




  Bm                              Bm-5
e|2------ 2------ 2------ 2------|------- ------- ------- -------|
B|3-------3-------3-------3------|6-------6-------6-------6------|
G|----4-------4-------4-------4--|7-------7-------7-------7------|
D|-------------------------------|----9-------9-------9-------9--|
A|2------------------------------|-------------------------------|
E|-------------------------------|7---------------------------5--|
                                 (T)  I guess you'd rather see me 
e|------- 10----- ----10- -------|------- 10----- ----10- -------|
B|----12----------12----------12-|----12----------12----------12-|
G|11----------11----------11-----|10----------10----------10-----|
D|-------------------------------|-------------------------------|
A|-------------------------------|-------------------------------|
E|-------------------------------|-------------------------------|

e|------- ------- ------- -------|------- ------- ------- -------|
B|-------------------------------|-------------------------------|
G|4---------------7----\--4------|-------------------------------|
D|-------------------------------|3------------------------------|
A|-------------------------------|----------------------------0--|
E|-------------------------------|-------------------------------|




  G7                              D/F#            F#/E
e|3------ 3------ 3------ 3------|------- 2------ ------- 0------|
B|6-------6-------6-------6------|--------3---------------2------|
G|----4-------4-------4-------4--|----2-------2-----------3------|
D|-------------------------------|--------------------4-------4--|
A|-------------------------------|-------------------------------|
E|3------------------------------|2---------------0--------------|
  grow                                Into    a   better      man 
e|------- 10----- ----10- -------|------- 10----- ------- 9------|
B|----12----------12----------12-|----10--------------11------11-|
G|12----------12----------12-----|11----------11--11-------------|
D|-------------------------------|-------------------------------|
A|-------------------------------|-------------------------------|
E|-------------------------------|-------------------------------|

e|------- ------- ------- -------|------- ------- ------- -------|
B|-------------------------------|--------3---------------2------|
G|----------------4--------------|------------4-------3-------3--|
D|--------------------3----------|----4-----------4--------------|
A|------------------------5------|-------------------------------|
E|3------------------------------|-------------------------------|




  Bm              F#              Bm
e|------- ------- ------- -------|------- ------- ------- -------|
B|--------3---------------2------|3------------------------------|
G|--------4---------------3------|4------------------------------|
D|----4-------4-------4-------4--|4------------------------------|
A|2------------------------------|2------------------------------|
E|----------------2--------------|-------------------------------|
          than the one you    know
e|------- 10----- ------- 9------|------- 10----- ----10- -------|
B|----12------12------11------11-|----12----------12----------12-|
G|11--------------11-------------|11----------11----------11-----|
D|-------------------------------|-------------------------------|
A|-------------------------------|-------------------------------|
E|-------------------------------|-------------------------------|

e|------- ------- ------- -------|------- ------- ------- -------|
B|-------------------------------|----------------3--------------|
G|--------4---------------4------|-------------------------------|
D|----4-------4-------4-------4--|-------------------------------|
A|5---------------4--------------|2------------------------------|
E|-------------------------------|-------------------------------|




  Bm-5                            Bm
e|------- ------- ------- -------|------- ------- ------- -------|
B|3-----------3-----------3------|3-----------3-----------3------|
G|4-----------4-----------4------|4-----------4-----------4------|
D|3-----------3-----------3------|4-----------4-----------4------|
A|2------------------------------|2-----------------------2------|
E|-------------------------------|-------------------------------|
     Sometimes my head is hanging low 
e|------- ------- ------- -------|------- 10----- ----10- -------|
B|-------------------------------|----12----------12----------12-|
G|10-----------------------------|11----------11----------11-----|
D|-------------------------------|-------------------------------|
A|-------------------------------|-------------------------------|
E|-------------------------------|-------------------------------|

e|------- ------- ------- -------|------- ------- 0------ -------|
B|-------------------------------|------------------------3------|
G|-------------------------------|-------------------------------|
D|3------------------------------|-------------------------------|
A|-------------------------------|-------------------------------|
E|-------------------------------|-------------------------------|




  Bm-5                            Bm
e|------- ------- ------- -------|------- ------- ------- -------|
B|3-----------3-----------3------|3------------------------------|
G|4-----------4-----------4------|4------------------------------|
D|3-----------3-----------3------|4-----------------------4------|
A|2-----------------------2------|2-----------5------------------|
E|-------------------------------|-------------------------------| 
     It's time to get on with the show 
e|------- ------- ------- -------|------- ------- ------- -------|
B|-------------------------------|-------------------------------|
G|10-----------------------------|11-----------------------------|
D|-------------------------------|-------------------------------|
A|-------------------------------|-------------------------------|
E|-------------------------------|-------------------------------|

e|------- ------- ------- -------|------- ------- ------- -------|
B|-------------------------------|-------------------------------|
G|-------------------------------|-------------------------------|
D|3------------------------------|4------------------------------|
A|-------------------------------|-------------------------------|
E|-------------------------------|-------------------------------|





e|------- ------- ------- -------|
B|-------------------------------|
G|-------------------------------|
D|----------------0-------4------|
A|--------------------2----------|
E|-------------------------------|
                            
e|------- ------- ------- -PPH---|
B|------------------------6535---|
G|-------------------------------|
D|-------------------------------|
A|-------------------------------|
E|-------------------------------|




  C7          Csus4   C                       Csus4   C
e|------- ------- ------- -------|------- ------- ------- -------|
B|-------------------------------|-------------------------------|
G|3-------------------0----------|3------------------------------|
D|2---2-------3------------------|2---2-------3-------2----------|
A|3------------------------------|3------------------------------|
E|-------------------------------|-------------------------------|
  At  the     mercy,              at  the     mercy, 
e|------- ------- ------- -------|------- ------- ------- -------|
B|3------------------------------|-------------------------------|
G|-------------------------------|-------------------------------|
D|--------------------2----------|----2-------3-------2----------|
A|----3-------3---------------3--|--------3-----------------/-5--|
E|-------------------------------|-------------------------------|




  D+5                             D
e|------- ------- ------- -------|------- ------- ------- -------|
B|3-----------3-------3---3---3--|3-----------3-------3---3------|
G|3-----------3-------3---3---3--|2-----------2-------4---2------|
D|4-----------4-------4---4---4--|4-----------4-------5---4------|
A|5-----------------------5------|5-------------------5-------5--|
E|-------------------------------|-------------------------------|
  At  the mercy   of  a   busy    day, 
e|------- ------- ------- -------|------- ------- ------- -------|
B|-------------------------------|-------------------------------|
G|3---3-------------------5------|2------------------------------|
D|-------------------------------|-------------------------------|
A|--------------------5----------|-------------------------------|
E|-------------------------------|-------------------------------|




  D-5                             Dmsus4
e|2------ ----2-- ------- 2------|------- ------- ------- -------|
B|3-----------3-----------3------|-------------------------------|
G|1-----------1-------1---1------|0-----------0-----------0------|
D|0-----------0-----------0------|3-----------3-----------3------|
A|-------------------------------|5-------5-----------5-------5--|
E|-------------------------------|-------------------------------|
  We can think of nothing more to say 
e|------- ------- ------- -------|------- ------- ------- -------|
B|-------------------------------|-------------------------------|
G|1------------------------------|0------------------------------|
D|-------------------------------|-------------------------------|
A|-------------------------------|-------------------------------|
E|-------------------------------|-------------------------------|

              (.
  D
e|------- ------- ------- -------|------- ------- ------- -------|
B|------------3------------------|-------------------------------|
G|2------------------------------|-------------------------------|
D|3H4----------------------------|-------------------------------|
A|5------------------------------|-------------------------------|
E|-------------------------------|-------------------------------|

e|------- ------- ------- -------|------- ------- ------- -------|
B|3------------------------------|-------------------------------|
G|2------------------------------|-------------------------------|
D|4------------------------------|-------------------------------|
A|5------------------------------|-------------------------------|
E|-------------------------------|-------------------------------|









        B  Bend
        R  Release
        /  Slide up
        \  Slide down
        H  Hammer-on
        P  Pull-off
        ~  Vibrato
        +  Harmonic
        x  Mute note
        .  Play note like a dot in standard notation
        ^  Ties two notes together
        (. Pause
        T  Thumb



 





Comments


Popular Paul Mccartney tabs & chords
Eat At Home 1 Chords
How Kind Of You Chords
Nod Your Head Chords
That Day Is Done Chords
The Lovely Linda Chords
Uncle Albert Chords
Junk 1 Tabs
Only Mama Knows Intro 1 Tabs
Dance Tonight Ukulele
Here Today Ukulele


Song lyrics



↑ Back to top | Tablatures and chords are parodies/interpretations of the original songs. You may use it for private study, scholarship, research or language learning purposes only
© 2014 AZChords.com Contact us | Privacy policy | DMCA | Add/correct tabs | Request tabs | Top 50 tabs