» » »

Paul Mccartney, All My Loving Bass tabs (ver.1)

Artists:  A B C D E F G H I J K L M N O P Q R S T U V W X Y Z # 

All My Loving Bass tabs (ver.1)

Paul Mccartney Tabs
Rating:
5/5 (1 vote)
All My Loving lessons Tabs too difficult? Try these video lessons and learn fast
                ALL MY LOVING

Words and music by Paul McCartney

VERSE

G||---------------------------------|---------------------------------|
D||-4-------2-------1---------------|---------------------------------|
A||-------------------------4-------|-2-------0-----------------------|
E||---------------------------------|-----------------4-------2-------|

G|---------------------------------|---------------------------------|
D|---------------------------------|---------------------------------|
A|-----------------2---------------|-4-------4---------------4-------|
E|-0-------4---------------4-------|-----------------4---------------|

G|---------------------------------|---------------------------------|
D|-------------------------2-------|-4-------4---------------4-------|
A|-0-------0-------4---------------|-----------------4---------------|
E|---------------------------------|---------------------------------|

G|---------------------------------|---------------------------------|
D|-0-------0-------0-------0-------|---------------------------------|
A|---------------------------------|-2-------2-------2-------2-------|
E|---------------------------------|---------------------------------|

G|---------------------------------|---------------------------------|
D|-4-------2-------1---------------|---------------------------------|
A|-------------------------4-------|-2-------0-----------------------|
E|---------------------------------|-----------------4-------2-------|

G|---------------------------------|---------------------------------|
D|---------------------------------|---------------------------------|
A|-----------------2---------------|-4-------4---------------4-------|
E|-0-------4---------------4-------|-----------------4---------------|

G|---------------------------------|---------------------------------|
D|-------------------------2-------|-----------------4---------------|
A|-0-------0-------4---------------|-2-------2---------------2-------|
E|---------------------------------|---------------------------------|

G|---------------------------------|---------------------------------||
D|-2-------------------------------|---------------------------------||
A|---------4-------2---------------|---------------------------------||
E|-------------------------4-------|-0-------------------------------||

CHORUS

G|---------------------------------|---------------------------------|
D|---------------------------------|---------------------------------|
A|-4-------4-----------------------|-3-------3---------------3-------|
E|-----------------4-------4-------|-----------------4---------------|

G|---------------------------------|---------------------------------|
D|-2-------2-----------------------|-2-------2---------------2-------|
A|-----------------2-------2-------|-----------------2---------------|
E|---------------------------------|---------------------------------|

G|---------------------------------|---------------------------------|
D|---------------------------------|---------------------------------|
A|-4-------4-----------------------|-3-------3---------------3-------|
E|-----------------4-------4-------|-----------------4---------------|

G|---------------------------------|---------------------------------|
D|-2-------------------------------|---------------------------------|
A|---------4-------2---------------|---------------------------------|
E|-------------------------4-------|-0-------------------------------|

SOLO

G|---------------------------------|-2-------------------------------|
D|-----------------2-------4-------|---------4-------2---------------|
A|-0-------4-----------------------|-------------------------4-------|
E|---------------------------------|---------------------------------|

G|---------------------------------|---------------------------------|
D|-2-------------------------------|---------------------------------|
A|---------4-------2---------------|-----------------2-------4-------|
E|-------------------------4-------|-0-------4-----------------------|

G|---------------------------------|---------------------------------|
D|-4-------2-------1---------------|---------------------------------|
A|-------------------------4-------|-2-------0-----------------------|
E|---------------------------------|-----------------4-------2-------|

G|---------------------------------|---------------------------------|
D|-2-------------------------------|---------------------------------|
A|---------4-------2---------------|---------------------------------|
E|-------------------------4-------|-0-------------------------------|

VERSE

G|---------------------------------|---------------------------------|
D|-4-------2-------1---------------|---------------------------------|
A|-------------------------4-------|-2-------0-----------------------|
E|---------------------------------|-----------------4-------2-------|

G|---------------------------------|---------------------------------|
D|---------------------------------|---------------------------------|
A|-----------------2---------------|-4-------4---------------4-------|
E|-0-------4---------------4-------|-----------------4---------------|

G|---------------------------------|---------------------------------|
D|-------------------------2-------|-4-------4---------------4-------|
A|-0-------0-------4---------------|-----------------4---------------|
E|---------------------------------|---------------------------------|

G|---------------------------------|---------------------------------|
D|-0-------0-------0-------0-------|---------------------------------|
A|---------------------------------|-2-------2-------2-------2-------|
E|---------------------------------|---------------------------------|

G|---------------------------------|---------------------------------|
D|-4-------2-------1---------------|---------------------------------|
A|-------------------------4-------|-2-------0-----------------------|
E|---------------------------------|-----------------4-------2-------|

G|---------------------------------|---------------------------------|
D|---------------------------------|---------------------------------|
A|-----------------2---------------|-4-------4---------------4-------|
E|-0-------4---------------4-------|-----------------4---------------|

G|---------------------------------|---------------------------------|
D|-------------------------2-------|-----------------4---------------|
A|-0-------0-------4---------------|-2-------2---------------2-------|
E|---------------------------------|---------------------------------|

G|---------------------------------|---------------------------------|
D|-2-------------------------------|---------------------------------|
A|---------4-------2---------------|---------------------------------|
E|-------------------------4-------|-0-------------------------------|

CHORUS

G|---------------------------------|---------------------------------|
D|---------------------------------|---------------------------------|
A|-4-------4-----------------------|-3-------3---------------3-------|
E|-----------------4-------4-------|-----------------4---------------|

G|---------------------------------|---------------------------------|
D|-2-------2-----------------------|-2-------2---------------2-------|
A|-----------------2-------2-------|-----------------2---------------|
E|---------------------------------|---------------------------------|

G|---------------------------------|---------------------------------|
D|---------------------------------|---------------------------------|
A|-4-------4-----------------------|-3-------3---------------3-------|
E|-----------------4-------4-------|-----------------4---------------|

G|---------------------------------|---------------------------------|
D|-2-------2-----------------------|-2-------2---------------2-------|
A|-----------------2-------2-------|-----------------2---------------|
E|---------------------------------|---------------------------------|

G|---------------------------------|---------------------------------|
D|---------------------------------|---------------------------------|
A|-4-------4-----------------------|-4-------4---------------4-------|
E|-----------------4-------4-------|-----------------4---------------|

G|---------------------------------|---------------------------------|
D|-2-------2-----------------------|-2-------2---------------2-------|
A|-----------------2-------2-------|-----------------2---------------|
E|---------------------------------|---------------------------------|

G|---------------------------------|---------------------------------|
D|---------------------------------|---------------------------------|
A|-4-------4-----------------------|-4-------4-----------------------|
E|-----------------4-------4-------|-----------------4-------4-------|

G|---------------------------------|---------------------------------|
D|-2-------2-----------------------|---------------------------------|
A|-----------------2-------2-------|---------------------------------|
E|---------------------------------|-0-------------------------------|

Lorena te amo!!!!!!!!!!!!!!!!!
            
Submit corrections

comments powered by Disqus
↑ Back to top | Paul Mccartney Bass for All My Loving. Lyrics for acoustic guitar and electric guitar. Tablatures and chords are parodies/interpretations of the original songs. You may use it for private study, scholarship, research or language learning purposes only