» » »

Warm Glow Bass tabs (ver.1)

Artists:  A B C D E F G H I J K L M N O P Q R S T U V W X Y Z # 

Warm Glow Bass tabs (ver.1)

Paul Hardcastle
Rating:
0/5 (0 votes)

Hard to play? Try these video lessons and learn fast.
                

Smooth Jazz on a 5 string.

Intro/Main Bass Line

G|-----------------------------------------------------|
D|-----------------------------------------------------|
A|-----------------------------------------------------|
E|-5--5------3--5------5--3--------------------------3-|
B|----------------------------3--3------1--3----5------|

G|-----------------------------------------------------|
D|-----------------------------------------------------|
A|-----------------------------------------------------|
E|-5--5------3--5------5--3--------------------------3-|
B|----------------------------3--3------1--3----5------|
            
Hard to play? Try these video lessons and learn fast. | Correct




comments powered by Disqus
↑ Back to top | Tablatures and chords are parodies/interpretations of the original songs. You may use it for private study, scholarship, research or language learning purposes only