» » »

Paul Hardcastle, Walk In The Night Bass tabs (ver.1)

Artists:  A B C D E F G H I J K L M N O P Q R S T U V W X Y Z # 

Walk In The Night Bass tabs (ver.1)

Paul Hardcastle Tabs
Rating:
4/5 (1 vote)
Walk In The Night lessons Tabs too difficult? Try these video lessons and learn fast
                

This is the majority of the song. I didn't have time to finish it now. I just wanted to 
get this tab up. I will complete it soon. Sorry.

Intro/Main Bass Line

G|-----------------------------------------------------------------------|
D|-----------------------------------------------------------------------|
A|-4-2-4-2-----------4-2-4-2-----------4-2-4-2-----------4-2-4-2---------|
E|-----------4-2-4-------------4---2-------------4-2-4-------------4---2-|

G|-----------------------------------------------------------------------|
D|-----------------------------------------------------------------------|
A|-4-2-4-2-----------4-2-4-2-----------4-2-4-2-----------4-2-4-2---------|
E|-----------4-2-4-------------4---2-------------4-2-4-------------4---2-|

After the main bass line is played then it goes to this. Then back to the main bass line.

G|------------------------------------------|
D|------------------------------------9-7-5-|
A|-7--7-5-5-7----5-5-7----7--7-5-5-7--------|
E|------------------------------------------|

G|------------------------------------------|
D|------------------------------------7/9-5-|
A|-7--7-5-5-7----5-5-7----7--7-5-5-7--------|
E|------------------------------------------|
            
Submit corrections

comments powered by Disqus
↑ Back to top | Paul Hardcastle Bass for Walk In The Night. Lyrics for acoustic guitar and electric guitar. Tablatures and chords are parodies/interpretations of the original songs. You may use it for private study, scholarship, research or language learning purposes only