» » »

The Road To Freedom Bass tabs (ver.1)

Artists:  A B C D E F G H I J K L M N O P Q R S T U V W X Y Z # 

The Road To Freedom Bass tabs (ver.1)

Paul Hardcastle
Rating:
0/5 (0 votes)

Hard to play? Try these video lessons and learn fast.
                Riff 1:
g:-------------------------------------------------------------------------------------------------------------|
d:-------------------------------------------------------------------------------------------------------------|
a:7--7---5-7------------7--7---5-7------------7--7---5-7------------7--7---5-7------------7--7---5-7-----------|
e:-----------5--5---5-7------------5--5---5-7------------5--5---5-7------------5--5---5-7------------5--5---5-7|


Riff 2:
g:-------------------------------|
d:-------------------------------|
a:-----------5-7---7--7-7---7-7-5|
e:5---5---7----------------------|


Enjoy!!!!!!!!!!!!!!!!!!!!!!!!!!!!!!!!!!!!!!!!!!!!!!!!!!!!!!!!!!!!!
            
Hard to play? Try these video lessons and learn fast. | Correct




comments powered by Disqus
↑ Back to top | Tablatures and chords are parodies/interpretations of the original songs. You may use it for private study, scholarship, research or language learning purposes only