» » »

The Circle Bass tabs (ver.1)

Artists:  A B C D E F G H I J K L M N O P Q R S T U V W X Y Z # 

The Circle Bass tabs (ver.1)

Paul Hardcastle
Rating:
4/5 (1 vote)

Hard to play? Try these video lessons and learn fast.
                

I'm pretty sure I submitted this tab without signing in! But Here it is again.

Bass Line

G|----------------------------------------------------------------------|
D|----------------------------------------------------------------------|
A|----------------------------------------------------------------------|
E|-4--6--6----4--6------------4-6--------4--6--6----4--6------------4-6-|
B|------------------6------6------6-----------------------6------6------|

G|----------------------------------------------------------------------|
D|----------------------------------------------------------------------|
A|----------------------------------------------------------------------|
E|-4--6--6----4--6------------4-6--------4--6--6----4--6------------4-6-|
B|------------------6------6------6-----------------------6------6------|
            
Hard to play? Try these video lessons and learn fast. | Correct




comments powered by Disqus
↑ Back to top | Tablatures and chords are parodies/interpretations of the original songs. You may use it for private study, scholarship, research or language learning purposes only