» » »

Paul Hardcastle, Sound Of Summer Bass tabs (ver.1)

Artists:  A B C D E F G H I J K L M N O P Q R S T U V W X Y Z # 

Sound Of Summer Bass tabs (ver.1)

Paul Hardcastle Tabs
 Rating:
4/5 (4 votes)
Sound Of Summer lessons Tabs too difficult? Try these video lessons and learn fast
                

This one is smooth and "bouncy". Very fun to play!

Intro/Main Bass Line

G|------------------------------------------------------|
D|------------------------------------------------------|
A|------------------------------------------------------|
E|-5-7---7-5--7---------------5-7---7-5--7--------------|
B|---------------5-7--7-5--7----------------5-7--7-5--7-|

G|------------------------------------------------------|
D|------------------------------------------------------|
A|------------------------------------------------------|
E|-5-7---7-5--7---------------5-7---7-5--7--------------|
B|---------------5-7--7-5--7----------------5-7--7-5--7-|

That is played for a while. Then it moves to this...

G|--------------------------------------------------------------------|
D|--------------------------------------------------------------------|
A|-8-10---10-8--10-------------------8-10---10-8--10------------------|
E|------------------8-10---10-8--10-------------------8-10---10-8--10-|
B|--------------------------------------------------------------------|

G|--------------|
D|--------------|
A|--------8--10-| End of this part
E|-8--10--------|
B|--------------|

Then play the main bass line again and that's it!
            
Submit corrections

comments powered by Disqus
↑ Back to top | Paul Hardcastle Bass for Sound Of Summer. Lyrics for acoustic guitar and electric guitar. Tablatures and chords are parodies/interpretations of the original songs. You may use it for private study, scholarship, research or language learning purposes only