» » »

So Much In Love Bass tabs (ver.1)

Artists:  A B C D E F G H I J K L M N O P Q R S T U V W X Y Z # 

So Much In Love Bass tabs (ver.1)

Paul Hardcastle
Rating:
0/5 (0 votes)

Hard to play? Try these video lessons and learn fast.
                

Get out the 5 string for this one!

Intro

G|---------------------------------------------|
D|---------------------------------------------|
A|---------------------3-----------------3---3-|
E|-----------------3-5---------------------5---|
B|-3--3----1-3--3--------3--3----1-3--3--------|

After Intro it's changed up a bit into this...

G|---------------------------------------------|
D|---------------------------------------------|
A|---------------------3-----------------3---3-|
E|-5--5----3-5--5--3-5---5--5----3-5--5----5---|
B|---------------------------------------------|

Back to the Intro/Main Bass Line

G|---------------------------------------------
D|---------------------------------------------
A|---------------------3-----------------3---3-
E|-----------------3-5---------------------5---
B|-3--3----1-3--3--------3--3----1-3--3--------

G|---------------------------------------------
D|---------------------------------------------
A|---------------------3-----------------3---3-
E|-----------------3-5---------------------5---
B|-3--3----1-3--3--------3--3----1-3--3--------

G|---------------------------------------------
D|---------------------------------------------
A|---------------------3-----------------3---3-
E|-----------------3-5---------------------5---
B|-3--3----1-3--3--------3--3----1-3--3--------

G|---------------------------------------------|
D|---------------------------------------------|
A|---------------------3-----------------3---3-|
E|-----------------3-5---------------------5---|
B|-3--3----1-3--3--------3--3----1-3--3--------|
            
Hard to play? Try these video lessons and learn fast. | Correct




comments powered by Disqus
↑ Back to top | Tablatures and chords are parodies/interpretations of the original songs. You may use it for private study, scholarship, research or language learning purposes only