» » »

Peace On Earth Bass tabs (ver.1)

Artists:  A B C D E F G H I J K L M N O P Q R S T U V W X Y Z # 

Peace On Earth Bass tabs (ver.1)

Paul Hardcastle
Rating:
4/5 (1 vote)

Hard to play? Try these video lessons and learn fast.
                

This song only has two bass lines.

Intro/Main Bass Line

G|------------------------------------|
D|------------------------------------|
A|-7------5-5--7-------1--3---1---3-5-|
E|------------------------------------|

Second Bass Line

G|------------------------------------------|
D|-5------3-3--5----------------------------|
A|--------------------3---5-----3-3--5------|
E|------------------------------------------|

G|--------------------------|
D|-5------3-3--5------------|
A|--------------------3---5-|
E|--------------------------|
            
Hard to play? Try these video lessons and learn fast. | Correct




comments powered by Disqus
↑ Back to top | Tablatures and chords are parodies/interpretations of the original songs. You may use it for private study, scholarship, research or language learning purposes only