» » »

One Wish Bass

Artists:  A B C D E F G H I J K L M N O P Q R S T U V W X Y Z # 

One Wish Bass

(ver. 1)
Paul Hardcastle Tabs
 Rating:
4/5 (5 votes)
    One Wish lessons Tabs too difficult? Try these video lessons and learn fast
                

This song is a remix of the popular Hiroshima original. This version is more up beat and 
in my opinion is up there with the original. The bass is really thumping in this song. 
Paul did an awesome job.

Intro/Chorus

G|----------------------------------------------------------------|
D|------4--4----------------------------4--4----------------------|
A|----------------------2----4--2-----------------------2----4--2-|
E|-2------------2--4---------------2------------2--4--------------|

Verse

G|---------------------------------------------------|
D|----------------4----------------------------------|
A|----------------------------------------2---2-4--2-|
E|-2---2------2-2---2-4------4---4----4-4---4--------|
            
Submit corrections

↑ Back to top | Paul Hardcastle Bass for One Wish. Lyrics for acoustic guitar and electric guitar. Tablatures and chords are parodies/interpretations of the original songs. You may use it for private study, scholarship, research or language learning purposes only