» » »

Paul Hardcastle, Moon Trekin Bass tabs (ver.1)

Artists:  A B C D E F G H I J K L M N O P Q R S T U V W X Y Z # 

Moon Trekin Bass tabs (ver.1)

Paul Hardcastle Tabs
 Rating:
4/5 (4 votes)
Moon Trekin lessons Tabs too difficult? Try these video lessons and learn fast
                

He everyone just want to let you all know that I don't actually own any of his albums. 

Intro/Main Bass Line

G|-----------------------------------------|
D|-----------------------------------------|
A|-----------------------------------------|
E|-5----7----------------5----7------------|
B|-----------5--5------------------5--5----|

G|-------------------------------------|
D|-------------------------------------|
A|-------------------------------------|
E|-5-7-7----------------5----7---------|
B|----------5--5------------------5--5-|

G|-----------------------------------------|
D|-----------------------------------------|
A|-----------------------------------------|
E|-5----7----------------5----7------------|
B|-----------5--5------------------5--5----|
            
Submit corrections

comments powered by Disqus
↑ Back to top | Paul Hardcastle Bass for Moon Trekin. Lyrics for acoustic guitar and electric guitar. Tablatures and chords are parodies/interpretations of the original songs. You may use it for private study, scholarship, research or language learning purposes only