» » »

Millennium Skyway Bass tabs (ver.1)

Artists:  A B C D E F G H I J K L M N O P Q R S T U V W X Y Z # 

Millennium Skyway Bass tabs (ver.1)

Paul Hardcastle
Rating:
5/5 (1 vote)

Hard to play? Try these video lessons and learn fast.
                

A nice, up beat bass line.

Intro/Main Bass Line

G|----------------------------------------------|
D|-----5-5-7-7-----5--7--------5-5-7-7-----5--7-|
A|-7-7----------7----------7-7----------7-------|
E|----------------------------------------------|

G|----------------------------------------------|
D|-----5-5-7-7-----5--7--------5-5-7-7-----5--7-|
A|-7-7----------7----------7-7----------7-------|
E|----------------------------------------------|

G|----------------------------------------------|
D|-----7-7-9-9-----7--9--------7-7-9-9-----7--9-|
A|-9-9----------9----------9-9----------9-------|
E|----------------------------------------------|

G|----------------------------------------------|
D|-----5-5-7-7-----5--7--------5-5-7-7-----5--7-|
A|-7-7----------7----------7-7----------7-------|
E|----------------------------------------------|

G|----------------------------------------------|
D|-----5-5-7-7-----5--7--------5-5-7-7-----5--7-|
A|-7-7----------7----------7-7----------7-------|
E|----------------------------------------------|
            
Hard to play? Try these video lessons and learn fast. | Correct




comments powered by Disqus
↑ Back to top | Tablatures and chords are parodies/interpretations of the original songs. You may use it for private study, scholarship, research or language learning purposes only