» » »

Jokers Wild Bass tabs (ver.1)

Artists:  A B C D E F G H I J K L M N O P Q R S T U V W X Y Z # 

Jokers Wild Bass tabs (ver.1)

Paul Hardcastle
Rating:
0/5 (0 votes)

Hard to play? Try these video lessons and learn fast.
                

Intro/Bass Line

G|-------------------------------------------------|
D|-------------------------------------------------|
A|-------------------------------------------------|
E|-5--7----5-5-7--5--7-----------------------------|
B|------------------------5-5-3--5----3-3--5--3--5-|

G|-------------------------------------------------|
D|-------------------------------------------------|
A|-------------------------------------------------|
E|-5--7----5-5-7--5--7-----------------------------|
B|------------------------5-5-3--5----3-3--5--3--5-|

After you play that 16 times or so then this.

G|--------------------------------------------------|
D|--------------------------------------------------|
A|--------------------------------------------------|
E|-7--7------5-7-5------------7--7------5-7-5-------|
B|------------------5--5-----------------------5--5-|
            
Hard to play? Try these video lessons and learn fast. | Correct




comments powered by Disqus
↑ Back to top | Tablatures and chords are parodies/interpretations of the original songs. You may use it for private study, scholarship, research or language learning purposes only