» » »

Inner Changes Bass tabs (ver.1)

Artists:  A B C D E F G H I J K L M N O P Q R S T U V W X Y Z # 

Inner Changes Bass tabs (ver.1)

Paul Hardcastle
Rating:
5/5 (1 vote)

Hard to play? Try these video lessons and learn fast.
                

Intro/Main Bass Line

G|--------------------------------------------------|
D|--------------------------------------------------|
A|--------------------------------------------------|
E|-7--7------5--7------5--7-7------5--7------5----7-|
B|--------------------------------------------------|

G|--------------------------------------------------|
D|--------------------------------------------------|
A|--------------------------------------------------|
E|--------------------------------------------------|
B|-7--7------5--7------5--7-7------5--7------5----7-|

G|--------------------------------------------------|
D|--------------------------------------------------|
A|--------------------------------------------------|
E|-7--7------5--7------5--7-7------5--7------5----7-|
B|--------------------------------------------------|

G|--------------------------------------------------|
D|--------------------------------------------------|
A|--------------------------------------------------|
E|--------------------------------------------------|
B|-7--7------5--7------5--7-7------5--7------5----7-|
            
Hard to play? Try these video lessons and learn fast. | Correct




comments powered by Disqus
↑ Back to top | Tablatures and chords are parodies/interpretations of the original songs. You may use it for private study, scholarship, research or language learning purposes only