» » »

Paul Hardcastle, Dancing Lights Bass tabs (ver.1)

Artists:  A B C D E F G H I J K L M N O P Q R S T U V W X Y Z # 

Dancing Lights Bass tabs (ver.1)

Paul Hardcastle Tabs
Rating:
0/5 (0 votes)
Hard to play? Try these video lessons and learn fast.
                

Another smooth one from Hardcastle!

Intro/Bass Line

G|------------------------------------------------------------------|
D|------------------------------------------------------------------|
A|------------------------------------------------------------------|
E|-7--7---5-7--7--------------------7--7---5-7--7-------------------|
B|----------------5--5---7--7--5-7-----------------5--5---7--7--5-7-|

G|------------------------------------------------------------------|
D|------------------------------------------------------------------|
A|------------------------------------------------------------------|
E|-7--7---5-7--7--------------------7--7---5-7--7-------------------|
B|----------------5--5---7--7--5-7-----------------5--5---7--7--5-7-|
            

comments powered by Disqus
↑ Back to top | Paul Hardcastle Bass for Dancing Lights. Lyrics for acoustic guitar and electric guitar. Tablatures and chords are parodies/interpretations of the original songs. You may use it for private study, scholarship, research or language learning purposes only