» » »

Constellation Of Dreams Bass tabs (ver.1)

Artists:  A B C D E F G H I J K L M N O P Q R S T U V W X Y Z # 

Constellation Of Dreams Bass tabs (ver.1)

Paul Hardcastle
Rating:
4/5 (1 vote)

Hard to play? Try these video lessons and learn fast.
                

This song is really fun to play. Like most of his songs they consist of only one bass 
line. But they sound so good.

Intro/Main Bass Line

G|---------------------------------------------------------|
D|-7-7-------------5-----------------1-3--------1-3--1-----|
A|------5--------3----3--------1--3----------------------3-|
E|---------------------------------------------------------|

G|---------------------------------------------------------|
D|-7-7-------------5-----------------1-3--------1-3--1-----|
A|------5--------3----3--------1--3----------------------3-|
E|---------------------------------------------------------|
            
Hard to play? Try these video lessons and learn fast. | Correct




comments powered by Disqus
↑ Back to top | Tablatures and chords are parodies/interpretations of the original songs. You may use it for private study, scholarship, research or language learning purposes only