» » »

Paul Hardcastle, Body Heat Bass tabs (ver.1)

Artists:  A B C D E F G H I J K L M N O P Q R S T U V W X Y Z # 

Body Heat Bass tabs (ver.1)

Paul Hardcastle Tabs
Rating:
0/5 (0 votes)
Body Heat lessons Tabs too difficult? Try these video lessons and learn fast
                

Smooth Jazz at it's best with Paul Hardcastle!

Intro/Main Bass Line

G|------------------------------------------------------------------------|
D|------------------------------------------------------------------------|
A|----------------9----7-7--9----7-------------------7-9-7--9----7--9---7-|
E|-7----5-5--7------------------------7----5-5--7-------------------------|

G|------------------------------------------------------------------------|
D|------------------------------------------------------------------------|
A|----------------9----7-7--9----7-------------------7-9-7--9----7--9---7-|
E|-7----5-5--7------------------------7----5-5--7-------------------------|
            

comments powered by Disqus
↑ Back to top | Paul Hardcastle Bass for Body Heat. Lyrics for acoustic guitar and electric guitar. Tablatures and chords are parodies/interpretations of the original songs. You may use it for private study, scholarship, research or language learning purposes only