» » »

Acoustic Dreams Bass tabs (ver.1)

Artists:  A B C D E F G H I J K L M N O P Q R S T U V W X Y Z # 

Acoustic Dreams Bass tabs (ver.1)

Paul Hardcastle
Rating:
4/5 (1 vote)

Hard to play? Try these video lessons and learn fast.
                

This would sound great on an acoustic bass ofcourse lol.

Bass Line

G|------------------------------------------------------|
D|------------------------------------------------------|
A|------------------------------------------------------|
E|-5---5------3--5---5------5--3--5---------------------|
B|-----------------------------------3---3------1--3--1-|

G|------------------------------------------------------|
D|------------------------------------------------------|
A|------------------------------------------------------|
E|-5---5------3--5---5------5--3--5---------------------|
B|-----------------------------------3---3------1--3--1-|
            
Hard to play? Try these video lessons and learn fast. | Correct




comments powered by Disqus
↑ Back to top | Tablatures and chords are parodies/interpretations of the original songs. You may use it for private study, scholarship, research or language learning purposes only