» » »

Paul Baloche, Open The Eyes Of My Heart Tabs (ver.1)

Artists:  A B C D E F G H I J K L M N O P Q R S T U V W X Y Z # 

Open The Eyes Of My Heart Tabs (ver.1)

Paul Baloche Tabs
 Rating:
4.3/5 (6 votes)
Open The Eyes Of My Heart lessons Tabs too difficult? Try these video lessons and learn fast
                OPEN THE EYES OF MY HEART
PAUL BALOCHE

It's not 100% accurate....just my own interpretation of the song
Hi to all Christian Rocker of the Philippines.....
SWITHCBLADE ROCKS....
Guitar 1: acoustic guitar
Guitar 2: slightly distorted
INTRO:   E5
Guitar 1:
|--------0---0---0---0---0---0---0---0---0---0---0---0-------|
|--------0---0---0---0---0---0---0---0---0---0---0---0-------|
|--------9---9---9---9---9---9---9---9---9---9---9---9-------|
|--------9---9---9---9---9---9---9---9---9---9---9---9-------|
|--------7---7---7---7---7---7---7---7---7---7---7---7-------|
|--------0---0---0---0---0---0---0---0---0---0---0---0-------|
Guitar 2:
|------------------------------------------------------------|
|------------------------------------------------------------|
|----------------------------------------9~~~----------------|
|----------------------------------------9~~~----------------|
|----------------------------------------7~~~----------------|
|------------------------------------------------------------|
CHORUS:
         E5
|--------0---0---0---0---0---0---0---0---0---0---0---0-------|
|--------0---0---0---0---0---0---0---0---0---0---0---0-------|
|--------9---9---9---9---9---9---9---9---9---9---9---9-------|
|--------9---9---9---9---9---9---9---9---9---9---9---9-------|
|--------7---7---7---7---7---7---7---7---7---7---7---7-------|
|--------0---0---0---0---0---0---0---0---0---0---0---0-------|
       Open the eyes of my heart Lord
      B4/D# 
|-----0---0---0---0---0---0---0---0---0---0---0---0----------|
|-----0---0---0---0---0---0---0---0---0---0---0---0----------|
|-----4---4---4---4---4---4---4---4---4---4---4---4----------|
|-----4---4---4---4---4---4---4---4---4---4---4---4----------|
|-----6---6---6---6---6---6---6---6---6---6---6---6----------|
|------------------------------------------------------------|
      Open the eyes of my heart
      A2/C#           A2
|-----0---0---0---0---0---0---0---0--------------------------|
|-----0---0---0---0---0---0---0---0--------------------------|
|-----2---2---2---2---2---2---2---2--------------------------|
|-----2---2---2---2---2---2---2---2--------------------------|
|-----4---4---4---4---0---0---0---0--------------------------|
|------------------------------------------------------------|
      I want to see You
      E               E4
|-----0---0---0---0---0---0----------------------------------|
|-----0---0---0---0---0---0----------------------------------|
|-----1---1---1---1---2---2----------------------------------|
|-----2---2---2---2---2---2----------------------------------|
|-----2---2---2---2---2---2----------------------------------|
|-----0---0---0---0---0---0----------------------------------|
     I want to see You
Guitar 1:
         E5
|--------0---0---0---0---0---0---0---0---0---0---0---0-------|
|--------0---0---0---0---0---0---0---0---0---0---0---0-------|
|--------9---9---9---9---9---9---9---9---9---9---9---9-------|
|--------9---9---9---9---9---9---9---9---9---9---9---9-------|
|--------7---7---7---7---7---7---7---7---7---7---7---7-------|
|--------0---0---0---0---0---0---0---0---0---0---0---0-------|
|Guitar 2:                                                   |
|------------------------------------------------------------|
|------------------------------------------------------------|
|--------9---------------------------------------------------|
|--------9---------------------------------------------------|
|--------7---------------------------------------------------|
|--------0---------------------------------------------------|
       Open the eyes of my heart Lord
Guitar 1:
     B4/D# 
|-----0---0---0---0---0---0---0---0---0---0---0---0----------|
|-----0---0---0---0---0---0---0---0---0---0---0---0----------|
|-----4---4---4---4---4---4---4---4---4---4---4---4----------|
|-----4---4---4---4---4---4---4---4---4---4---4---4----------|
|-----6---6---6---6---6---6---6---6---6---6---6---6----------|
|------------------------------------------------------------|
| Guitar 2:                                                  |
|------------------------------------------------------------|
|---------------4--------------------------------------------|
|------------4-----------------------------------------------|
|---------4--------------------------------------------------|
|------6-----------------------------------------------------|
|------------------------------------------------------------|
      Open the eyes of my heart
Guitar 1:
      A2/C#           A2
|-----0---0---0---0---0---0---0---0--------------------------|
|-----0---0---0---0---0---0---0---0--------------------------|
|-----2---2---2---2---2---2---2---2--------------------------|
|-----2---2---2---2---2---2---2---2--------------------------|
|-----4---4---4---4---0---0---0---0--------------------------|
|------------------------------------------------------------|
|Guitar 2:                                                   |
|------------------------------0-----------------------------|
|------------------------------------------------------------|
|-------------------------2----------------------------------|
|----------------------2-------------------------------------|
|-------------------0----------------------------------------|
|------------------------------------------------------------|
      I want to see You
Guitar 1:
      E               E4
|-----0---0---0---0---0---0----------------------------------|
|-----0---0---0---0---0---0----------------------------------|
|-----1---1---1---1---2---2----------------------------------|
|-----2---2---2---2---2---2----------------------------------|
|-----2---2---2---2---2---2----------------------------------|
|-----0---0---0---0---0---0----------------------------------|
|Guitar 2:                                                   |
|-----------------------------0------------------------------|
|-----------------------------0------------------------------|
|------------------------------------------------------------|
|-----------------------2------------------------------------|
|--------------------2---------------------------------------|
|-----------------0------------------------------------------|
     I want to see You
Guitar 1:
         E5
|--------0---0---0---0---0---0---0---0---0---0---0---0-------|
|--------0---0---0---0---0---0---0---0---0---0---0---0-------|
|--------9---9---9---9---9---9---9---9---9---9---9---9-------|
|--------9---9---9---9---9---9---9---9---9---9---9---9-------|
|--------7---7---7---7---7---7---7---7---7---7---7---7-------|
|--------0---0---0---0---0---0---0---0---0---0---0---0-------|
|Guitar 2:                                                   |
|-------0----------------------------------------------------|
|-------0----------------------------------------------------|
|-------9----------------------------------------------------|
|-------9----------------------------------------------------|
|-------7----------------------------------------------------|
|-------0----------------------------------------------------|
      Open the eyes of my heart Lord
Guitar 1:
      B4/D# 
|-----0---0---0---0---0---0---0---0---0---0---0---0----------|
|-----0---0---0---0---0---0---0---0---0---0---0---0----------|
|-----4---4---4---4---4---4---4---4---4---4---4---4----------|
|-----4---4---4---4---4---4---4---4---4---4---4---4----------|
|-----6---6---6---6---6---6---6---6---6---6---6---6----------|
|------------------------------------------------------------|
|Guitar 2:                                                   |
|------------------------------------------------------------|
|-------------------------------7---5---4--------------------|
|---------------------------4--------------------------------|
|---------------------------4--------------------------------|
|---------------------------6--------------------------------|
|------------------------------------------------------------|
      Open the eyes of my heart
Guitar 1:
      A2/C#           A2
|-----0---0---0---0---0---0---0---0--------------------------|
|-----0---0---0---0---0---0---0---0--------------------------|
|-----2---2---2---2---2---2---2---2--------------------------|
|-----2---2---2---2---2---2---2---2--------------------------|
|-----4---4---4---4---0---0---0---0--------------------------|
|------------------------------------------------------------|
|Guitar 2:                                                   |
|-----------------------------0------------------------------|
|-----------------------------0------------------------------|
|------------------------------------------------------------|
|------------------------2-----------------------------------|
|---------------------0--------------------------------------|
|------------------------------------------------------------|
      I want to see You
      E               E4
|-----0---0---0---0---0---0----------------------------------|
|-----0---0---0---0---0---0----------------------------------|
|-----1---1---1---1---2---2----------------------------------|
|-----2---2---2---2---2---2----------------------------------|
|-----2---2---2---2---2---2----------------------------------|
|-----0---0---0---0---0---0----------------------------------|
|Guitar 2:                                                   |
|-----------------------------0------------------------------|
|-----------------------------0------------------------------|
|------------------------------------------------------------|
|-----------------------2------------------------------------|
|--------------------2---------------------------------------|
|-----------------0------------------------------------------|
     I want to see You
REPEAT CHORUS once SAME TABS GUITAR 1 AND GUITAR 2:
VERSE:
Guitar 1:
             B             C#m
|------------2---2---2---2/4---4--4-------------------------|
|------------4---4---4---4/5---5--5-------------------------|
|------------4---4---4---4/6---6--6-------------------------|
|------------4---4---4---4/6---6--6-------------------------|
|------------2---2---2---2/4---4--4-------------------------|
|-----------------------------------------------------------|
|Guitar 2:                                                  |
|-----------------------------------------------------------|
|-----------------------------------5---5-------------------|
|-----------------------------------6---6-------------------|
|------------------------------2/4--6---6-------------------|
|-----------------------------------------------------------|
|-----------------------------------------------------------|
   To see You high and lifted up
   A2                          B4
|--0---0---0---0---0---0-------0---0---0--0-----------------|
|--0---0---0---0---0---0-------0---0---0--0-----------------|
|--2---2---2---2---2---2-------4---4---4--4-----------------|
|--2---2---2---2---2---2-------4---4---4--4-----------------|
|--0---0---0---0---0---0-------2---2---2--2-----------------|
|-----------------------------------------------------------|
  Shining in the light of Your glory
Guitar 1:
   B                      C#m  
|--2---2---2---2----------4---4---4---4---------------------|
|--4---4---4---4----------5---5---5---5---------------------|
|--4---4---4---4----------6---6---6---6---------------------|
|--4---4---4---4----------6---6---6---6---------------------|
|--2---2---2---2----------4---4---4---4---------------------|
|-----------------------------------------------------------|
|Guitar 2:                                                  |
|-----------------------------------------------------------|
|-----------------------------------5---5-------------------|
|-----------------------------------6---6-------------------|
|------------------------------2/4--6---6-------------------|
|-----------------------------------------------------------|
|-----------------------------------------------------------|
  Pour out Your power and love

             F#m7(11)     B4
|------------0--0--0--0---0--0--0--0------------------------|
|------------0--0--0--0---0--0--0--0------------------------|
|------------2--2--2--2---4--4--4--4------------------------|
|------------2--2--2--2---4--4--4--4------------------------|
|------------x--x--x--x---2--2--2--2------------------------|
|------------2--2--2--2-------------------------------------|
  As we sing Holy, Holy, Holy

REPEAT CHORUS:
THEN VERSE 2X:
OUTRO:
Holy, Holy, Holy
Holy, Holy, Holy
Holy, Holy, Holy
I want to see You

Then Ladies:
Open the eyes of my heart Lord
CODLOVEMELBS.....
            
Submit corrections

comments powered by Disqus
↑ Back to top | Paul Baloche Tabs for Open The Eyes Of My Heart. Lyrics for acoustic guitar and electric guitar. Tablatures and chords are parodies/interpretations of the original songs. You may use it for private study, scholarship, research or language learning purposes only