>
 >
Rock N Roll Susie

Rock N Roll Susie Guitar Tabs

Pat Travers - Rock N Roll Susie chords, tabs, tablatures, lyrics

Guitar lessons | Add/correct | Request | Top 50 tabs Artists:  A B C D E F G H I J K L M N O P Q R S T U V W X Y Z 0-9

Rock N Roll Susie Guitar Tabs – Pat Travers

CD, Sheet music, Poster

Do you like Rock N Roll Susie? Share with your friends now
Tabs
-----------------------------------------------------------------------------
-------------------------------------------------------------------------------

Tuning:Standard
             Uh OH look out here it goes :)        Repeat 5X
e|-----------|                         |------------------|
B|--------2--|                         |------------------|
G|--------2--|                         |---------2-2---2--|
D|-2------0--|                         |-2-------2-2---2--|
A|--0h3h4----|                         |---0h3h4-----3----|
E|-----------|                         |------------------|

e|---------------------------------------------------------------------------|
B|---------------------------------------------------------------------------|
G|-5-5-5-5-5-2-2---2---------2-2---2---------2-2---2---------2-2---2---------|
D|-5-5-5-5-5-2-2---2-2-------2-2---2-2-------2-2---2-2-------2-2---2---------|
A|-3-3-3-3-3-----4-----0h3h4-----4-----0h3h4-----4-----0h3h4-----4-----------|
E|---------------------------------------------------------------------------|

 Ok down here is the signature lead' feel out the bends to get it right.
e|---------------------------------------------------------------------------|
B|---------------------------------------------------------------------------|
G|-------2-4b-4b-4br-2---2----------2-4b-4b-4br-2-4b---------2-4b-4b-4br-2-2-|
D|-4-2h4---------------4------4-2h4--------------------4-2h4--------------4--|
A|---------------------------------------------------------------------------|
E|---------------------------------------------------------------------------|

  Do this 3x                  Fast right here...
e|------------------| |-------------------------|
B|------------------| |-------------------------|
G|-------2-4p2---2-2| |-------2-4p2-2-----------|
D|-4-2h4-------4----| |-4-2h4------4-4p2-2------|
A|------------------| |-----------------4-4p2p0-|
E|------------------| |-------------------------|

  OK now on to the verse
e|---------------------------------------------------------------------------|
B|---------------------------------------------------------------------------|
G|-2------2-----2-2---------2----2-----------------------2--2-2-2------------|
D|-2------2-----2-2-2-------2----2-2--------3-3-3-3--3-3-2--2-2-2-2----------|
A|-0---4--0---4-0-----0h3h4-0--4-0---0h3h4--3-3-3-3--3-3-0--0-0-0---0h3h4----|
E|------------------------------------------1-1-1-1--1-1---------------------|

e|----------------------------------------------------------------------------|
B|----------------------------------------------------------------------------|
G|---5-7-2-----2-22-2-22-------2-22-2-2--------2-22-2-2-------2-22-2-2--------|
D|-3-5-7-2-----2-22-2-22-------2-22-2-2--------2-22-2-2-------2-22-2-2--------|
A|-3-3-5-0-----0----0----0h3h4-0--------0h3h4--0--------0h3h4-0--------0h3h4--|
E|-1--------------------------------------------------------------------------|

    Their is 2 guitars that play on the verse but i am generally just tabbing the rhythm guitar.
e|---------------------------------------------------------------------------|
B|---------------------------------------------------------------------------|
G|-----------2-22-2------------5-7-2-----------------------------------------|
D|-3-33-3-33-2-22-2-2------3---5-7-2-----------------------------------------|
A|-3-33-3-33-0-00-0--0h3h4-3---3-5-0-----------------------------------------|
E|-1-11-1-11---------------1-------------------------------------------------|

Ok down here is the signature lead again but slightly different at the end of it
e|---------------------------------------------------------------------------|
B|---------------------------------------------------------------------------|
G|-------2-4b-4b-4br-2---2----------2-4b-4b-4br-2-4b---------2-4b-4b-4br-2-2-|
D|-4-2h4---------------4------4-2h4--------------------4-2h4--------------4--|
A|---------------------------------------------------------------------------|
E|---------------------------------------------------------------------------|

  Do this 3x
e|------------------| |------------------------------------------------------|
B|------------------| |------------------------------------------------------|
G|-------2-4p2---2-2| |-------2-4p2-2------------2-4p2-2---------------------|
D|-4-2h4-------4----| |-4-2h4------4-4p2-2------------4-4p2-2----------------|
A|------------------| |-----------------4-4p2p0------------4-4p2p0-----------|
E|------------------| |------------------------------------------------------|

e|---------------------------------|
B|---------------------------------|
G|------------------------------2--| OK solo comes here but i dont really
D|------------------------3--5--2--| know it so you will have to figure
A|-0-1-2-3-4---4-5-6-7-8--3--5--0--| it out or you can do like i do and
E|------------------------1--3-----| just improvise the solo :)


  Ok at 2:09 in the song, toward the end of the solo, this part is a must if you play 
song in a band
e|-------------------------------------------------|
B|-------------------------------------------------|
G|-5-5-5-4-2---5-5-5-4-2---5-5-5-4-2----7-7-7-5-4--|
D|-5-5-5-4-2---5-5-5-4-2---5-5-5-4-2----7-7-7-5-4--|
A|-------------------------------------------------|
E|-------------------------------------------------|
  Play the part up their 2x then solo a little more.

  Ok at 2:31 the solo is done and this part comes in
e|--------3-3------------------------------------------------3-3-------------|
B|----3---3-3-3------------------------------------------3---3-3-3-----------|
G|-22-2-2-0-0-2--------2-2--2---------2-2---2---------22-2-2-0-0-2-----------|
D|-22-0-2-----0-2------2-2--2-2-------2-2---2-2-------22-0-2-----0-----------|
A|-00---0--------0h3h4----4-----0h3h4-----4-----0h3h4-00---0-----------------|
E|---------------------------------------------------------------------------|

e|----------------------------------------------------------------------------|
B|----------------------------------------------------------------------------|
G|--------2-2---2-------------------------------------2-2---2---------2-------|
D|-2------2-2---2-2-------7-6-5-4-3-2---2-3-4-4brb/\--2-2---2-2-------2-------|
A|--0h3h4-----4-----0h3h4-----------------------------0---4-----0h3h4-0-------|
E|----------------------------------------------------------------------------|

e|----------------------------------------------------------------------------|
B|----------------------------------------------------------------------------|
G|-2---2---------2-2---2---------2-2---2-------------------------2-2---2------|
D|-2---2-2-------2-2---2-2-------2-2---2-2-------3-3-3-3-3-3-3-3-2-2---2------|
A|---4-----0h3h4-0---4-----0h3h4-0---4-----0h3h4-3-3-3-3-3-3-3-3-0---4--------|
E|-----------------------------------------------1-1-1-1-1-1-1-1--------------|

e|----------------------------------------------------------------------------|
B|----------------------------------------------------------------------------|
G|---------2-2---2---------5-7-2-2---2-----------------5-7-2------------------|
D|-2-------2-2---2-------3-5-7-2-2---2--7-6-5-4-3-2--3-5-7-2------------------|
A|---0h3h4-0---4---0h3h4-3-3-5-0---4-----------------3-3-5-0------------------|
E|-----------------------1---------------------------1------------------------|
               On the part where it goes 7 6 5 4 3 2  the F chord over laps
               the 2 or e on the d string.


e|---------------------------------------------------------------------------|
B|---------------------------------------------------------------------------|
G|-------2-4b-4b-4br-2---2----------2-4b-4b-4br-2-4b---------2-4b-4b-4br-2-2-|
D|-4-2h4---------------4------4-2h4--------------------4-2h4--------------4--|
A|---------------------------------------------------------------------------|
E|---------------------------------------------------------------------------|

  Do this 3x
e|------------------| |------------------------------------------------------|
B|------------------| |------------------------------------------------------|
G|-------2-4p2---2-2| |-------2-4p2-2------------2-4p2-2---------------------|
D|-4-2h4-------4----| |-4-2h4------4-4p2-2------------4-4p2-2----------------|
A|------------------| |-----------------4-4p2p0------------4-4p2p0-----------|
E|------------------| |------------------------------------------------------|

e|---------------------------------|
B|---------------------------------|
G|---4p2-2----------------------2--|
D|------4--4p2-2--------3---5---2--|
A|------------4-4p2p0---3---5---0--|
E|----------------------1---3------|
                                   then a really small outro solo here.

And their ya have it a little rock n roll susie by pat travers. This is my 2nd tab i 
ever done so their will probably be some corrections needed to be done and if you have 
have fun and enjoy.


************************************

| /   slide up
| \   slide down
| h   hammer-on
| p   pull-off
| ~   vibrato
| +   harmonic
| x   Mute note
| b   Bend
| pb  Pre-bend
| br  Bend release
| pbr Pre-bend release
| brb Bend release bend

************************************





Comments


Popular Pat Travers tabs & chords
I La La La Love You Bass Tabs
I La La La Love You Chords
Gettin Betta Tabs
Gettin Betta 1 Tabs
I La La La Love You Tabs
Snortin Whiskey Tabs
I La La La Love You Ukulele


Song lyrics



↑ Back to top | Tablatures and chords are parodies/interpretations of the original songs. You may use it for private study, scholarship, research or language learning purposes only
© 2014 AZChords.com Contact us | Privacy policy | DMCA | Add/correct tabs | Request tabs | Top 50 tabs