» » »

Patti Smith, Redondo Beach Bass tabs (ver.1)

Artists:  A B C D E F G H I J K L M N O P Q R S T U V W X Y Z # 

Redondo Beach Bass tabs (ver.1)

Patti Smith Tabs
 Rating:
4/5 (4 votes)
Redondo Beach lessons Tabs too difficult? Try these video lessons and learn fast
                -------------------------------------------------------------------------------
			     REDANDO BEACH - Patti Smith
-------------------------------------------------------------------------------
Tuning: Standard

Intro:
G|----------------|
D|----------------|
A|-2-2----2-2-----|
E|----------------|

Verse:
"Late afternoon"
G|----------------|----------2------|
D|----------------|----1-2-4--------|
A|-2-2----2-2-----|-----------------|
E|----------------|-----------------|

"Dreaming hotel"
G|----------------|---4--2---2------|
D|----------------|--------4---4----|
A|-2-2----2-2-----|-----------------|
E|----------------|-----------------|

"We just had the quarrel"
G|----------------|---9--7---7------|
D|----------------|--------9---9----|
A|-7-7----7-7-----|-----------------|
E|-------7--------|-----------------|

"That sent you away"
G|----------------|----------2------|
D|----------------|----1-2-4--------|
A|-2-2----2-2-----|-----------------|
E|----------------|-----------------|

"I was looking for you-oo-oo,  are you
G|----------------|-----------------|
D|------------4---|-2-----------2---|
A|----------4---4-|-----------2---2-|
E|-2--------------|-----------------|

"gone, gone?"
G|----------------|-----------------|
D|----------------|-----------------|
A|/2-----/2-------|/2-----/2--------|
E|----------------|-----------------|

Then verse again

Bridge:
"Down by the ocean, it was so dismal"
G|----------------|-----------------|
D|-2----------2---|-4-----------4---|
A|----------2---2-|-----------4---4-|
E|----------------|-----------------|

"Women all standing with shock on their faces"
G|----------------|-----------------|
D|-2----------2---|-4-----------4---|
A|----------2---2-|-----------4---4-|
E|----------------|-----------------|

"Sad descripstion, oh I was looking for"
G|----------------|-----------------|
D|-2----------2---|-4-----------4---|
A|----------2---2-|-----------4---4-|
E|----------------|-----------------|

"You"
G|----------------|-----------------|
D|----------------|-----------------|
A|/2-----/2-------|/2-----/2--------|
E|----------------|-----------------|

Repeat all that a few times

Outro:
G|-------------4--|------4---2------|
D|-------1-2-4----|-----------------|
A|-2--------------|-----------------|
E|----------------|-----------------|
            
Submit corrections

comments powered by Disqus
↑ Back to top | Patti Smith Bass for Redondo Beach. Lyrics for acoustic guitar and electric guitar. Tablatures and chords are parodies/interpretations of the original songs. You may use it for private study, scholarship, research or language learning purposes only