» » »

Patti Smith, Frederick Bass tabs (ver.1)

Artists:  A B C D E F G H I J K L M N O P Q R S T U V W X Y Z # 

Frederick Bass tabs (ver.1)

Patti Smith Tabs
 Rating:
4/5 (4 votes)
Frederick lessons Tabs too difficult? Try these video lessons and learn fast
                Patti Smith Group
Bass Tab


Intro

|---------------------------------------------|
|----------------4--------------------4-------|
|-5---7\-----4---------5---7\-----4-----------|
|---------------------------------------------| x3

Chorus

|---------------------------------------------------------------------|
|------------------------4-------------------------------4------------|
|-5-4-5-7------7\--4---4-----4-2-4-5-4-5-7-----7\--4---4-----4-2-4----|
|------------7-------4-----------------------7-------4----------------| 

|----------------------------------------------------------------|
|------------------------4-------------------------------4-------|
|-5-4-5-7------7\--4---4-----4-2-4-5-4-5-7-----7\--4---4---------|
|------------7-------4-----------------------7-------4-----------| 

Fill

|-------------------------------------------------------------|
|----------------------4----4-----------------------4----4----|
|-5-4-5-7----7\--4---4----4----5-4-5-7----7\--4---4----4------|
|----------7-------4--------------------7-------4-------------|

Verse

|-------------------------------------------------------------|
|----------------------4----4-----------------------4----4----|
|-5-4-5-7----7\--4---4----4----5-4-5-7----7\--4---4----4------|
|----------7-------4--------------------7-------4-------------|

|------------------------------------------------------------|
|----------------------4----4-----------------------4--------|
|-5-4-5-7----7\--4---4----4----5-4-5-7----7\--4---4----------|
|----------7-------4--------------------7-------4------------|

Break

|--------------------------------------------|
|--------------------------------------------|
|-5---7-----5---7-----4---------4------------|
|-------------------------2---------2--------| x2


Intro
Chorus
Fill
Verse
Chorus
Break
Verse x2 (second time play more like chorus)
Chorus til End (Add some extra notes)

[Just a rough sort of guide]
            
Submit corrections

comments powered by Disqus
↑ Back to top | Patti Smith Bass for Frederick. Lyrics for acoustic guitar and electric guitar. Tablatures and chords are parodies/interpretations of the original songs. You may use it for private study, scholarship, research or language learning purposes only