» » »

Walkin After Midnight Tabs (ver.1)

Artists:  A B C D E F G H I J K L M N O P Q R S T U V W X Y Z # 

Walkin After Midnight Tabs (ver.1)

Patsy Cline
Rating:
0/5 (0 votes)

Tabs too difficult? Try these video lessons and learn fast.
                Intro
E---|--------------------------------------------|-----------------------------------|--
B---|-----------3/4------------------------------|-----------4-----------------------|--
G---|--------5-------5--2--3--4/5--5/8--7--5--5--|--------5-----5--------5--5--------|--
D---|--5--7--------------------------------------|--5--7-----------7--7--------7--5--|--
A---|--------------------------------------------|-----------------------------------|--
E---|--------------------------------------------|-----------------------------------|--

    Solo
E---|--------------------------------------------|--------------------------|--
B---|-----------3/4------------------------------|--------------5--5--4-----|--
G---|--------5-------5--2--3--4/5--5/8--7--5--5--|--------5--------------7--|--
D---|--5--7--------------------------------------|--5--7-----7--------------|--
A---|--------------------------------------------|--------------------------|--
E---|--------------------------------------------|--------------------------|--
            
Tabs too difficult? Try these video lessons and learn fast.




comments powered by Disqus
↑ Back to top | Tablatures and chords are parodies/interpretations of the original songs. You may use it for private study, scholarship, research or language learning purposes only