» » »

I Fall To Pieces Bass tabs (ver.1)

Artists:  A B C D E F G H I J K L M N O P Q R S T U V W X Y Z # 

I Fall To Pieces Bass tabs (ver.1)

Patsy Cline
Rating:
0/5 (0 votes)

Tabs too difficult? Try these video lessons and learn fast.
                Patsy Cline
I Fall To Pieces

Standard tuning

Walking bass tab

Intro
G|---------------------------------------------------|
D|-----5--8--5-----7--10--7--8--5--------------5--7--|
A|--6-----------8------------------8--5-----8--------|
E|---------------------------------------6-----------|


Verse (play 2x)
G|---------------------------------------------------|
D|--8--5-----------5--8--5-----7--10--7--------------|
A|--------8--5--6-----------8------------8-----8--7--|
E|------------------------------------------8--------|

G|---------------------------------------------------|
D|-----5--8--5-----7--10--7--8--5--------------5--7--|
A|--6-----------8------------------8--5-----8--------|
E|---------------------------------------6-----------|


Chorus
G|-----7--10--7-----------------------5--8--5--------|
D|--8------------8--6--5--------5--8-----------8--5--|
A|------------------------8--6-----------------------|
E|---------------------------------------------------|

G|------------------------------------------|
D|-----7--10--7--------5--7--8--5-----------|
A|--8------------8--8--------------8--5-----|
E|---------------------------------------6--|

G|---------------------------------------------------|
D|--------------5--8--5-----7--10--7--8--5-----------|
A|--------5--6-----------8------------------8--5-----|
E|--6--8------------------------------------------6--|

                                      First verse                       
G|-----------------------------------|-------------------------|
D|--------8-----5--8--5-----7--10--7-|-8--5--------------------|
A|-----5-----6-----------8-----------|-------8--5-----------5--|
E|--6--------------------------------|-------------6--6--8-----|


Repeat Intro, Verse and Chorus 1 more time


  Second verse (ending)
G|-----------------------------|
D|--8---8-5--------------------|
A|----------8---5-8-----8------|
E|------------------6-------6--|
            
Tabs too difficult? Try these video lessons and learn fast.


comments powered by Disqus
↑ Back to top | Tablatures and chords are parodies/interpretations of the original songs. You may use it for private study, scholarship, research or language learning purposes only