» » »

Alska Mig Som Mest Da Tabs (ver.1)

Artists:  A B C D E F G H I J K L M N O P Q R S T U V W X Y Z # 

Alska Mig Som Mest Da Tabs (ver.1)

Patrik Isaksson
Rating:
0/5 (0 votes)

Hard to play? Try these video lessons and learn fast.
                -------------------------------------------------------------------------
ÄLSKA MIG SOM MEST DÅ – Patrik Isaksson
-------------------------------------------------------------------------

Standard tuning
Capo on fifth fret! Everything is relative to capo!

INTRO
   Em       Esus2*  Em       Esus2*  Em       Esus2*  Em       Esus2*
e|-----------------------------------------------------------------------|
B|-------0-------0--------0-------0--------0-------0--------0-------0----|
G|-----0-------2--------0-------2--------0-------2--------0-------2------|
D|---2-----2/4--------2-----2/4--------2-----2/4--------2-----2/4--------|
A|-----------------------------------------------------------------------|
E|-0----------------0----------------0----------------0------------------|
   Em       Esus2*  Em       Esus2*  Em       Esus2*  Em
e|-------------------------------------------------------------|
B|-------0-------0--------0-----3p0--------0-------0--------0--|
G|-----0-------2--------0----------------0-------2--------0----|
D|---2-----2/4--------2-----2/4--------2-----2/4--------2------|
A|-------------------------------------------------------------|
E|-0----------------0----------------0----------------0--------|

VERSE1
   C                D                Em               G5
e|------------------------2----------------------------------------------|
B|-------1--------------3---3--------------0----------------3------------|
G|-----0---0----------2-------2---2------0---0------------0---0----------|
D|---2-------2---2--0-----------0------2-------2---2----0-------0---0----|
A|-3-----------3---------------------------------------------------------|
E|-----------------------------------0-----------0----3-----------3------|
   C                D                Em      Esus2*   Em
e|------------------------0----------------------------------------------|
B|-------1--------------3---3--------------0----------------0------------|
G|-----0---0----------2-------2---2------0-------0--------0---0----------|
D|---2-------2---2--0-----------0------2-----2/4---4----2-------2--------|
A|-3-----------3---------------------------------------------------------|
E|-----------------------------------0----------------0-----------0------|
   C            D                Em              G5               Am
e|--------------------2--------------------------------------------------|
B|-------1----------3---3--------------0---------------3----------------1|
G|---------0------2-------2---2------0---0-----------0---0------------2--|
D|---0h2-----2--0-----------0------2-------2-------0-------0---0----2----|
A|-3--------------------------------------------------------------0------|
E|-------------------------------0-----------0-2-3-----------3-----------|
            B      Bsus4    B
e|-----------------------------|
B|-------------------5------4--|
G|-2----------4---4----4----4--|
D|---2---2------4--------4--4--|
A|-----0----2------------------|
E|-----------------------------|

CHORUS1
   C                D              G5      D/F#   Em          C
e|------------------------2----------------------------------------------|
B|-------1---0----------3---3------------3------------0-------------1----|
G|-----0---0---0------2-------2--------0-------2---------0--------0---0--|
D|---2-----------2--0-----------0----0-------0------2------2----2--------|
A|-3----------------------------------------------------------3----------|
E|---------------------------------3-------2------0----------------------|
          D              Em       Esus2*  Em              C
e|--------------2--------------------------------------------------------|
B|-0----------3---3------------0----------------0---------------1--------|
G|---0------2-------2--------0-------0--------0---0-----------0---0------|
D|-----2--0-----------0----2-----2/4---4----2-------2-------2-------2---2|
A|----------------------------------------------------0-2-3-----------3--|
E|-----------------------0----------------0------------------------------|
   D              G5      D/F#   Em          C                Dsus2
e|-------2----------------------------------------------------------0----|
B|-----3---3------------3------------0-------------1--------------3---3--|
G|---2-------2--------0-------2--------0---------0---0----------2--------|
D|-0-----------0----0-------0------2------2----2-------2---2--0----------|
A|-------------------------------------------3-----------3---------------|
E|----------------3-------2------0---------------------------------------|
       INTERLUDE1 starts>>
          Em       Esus2*  Em       Esus2*  Em       Esus2*  Em
e|-----|-----------------------------------------------------------------|
B|-----|--------0-------0--------0-----3p0--------0-------0--------0-----|
G|-2---|------0-------2--------0----------------0-------2--------0-------|
D|---0-|----2-----2/4--------2-----2/4--------2-----2/4--------2---------|
A|-----|-----------------------------------------------------------------|
E|-----|--0----------------0----------------0----------------0-----------|

VERSE2 (only slightly different from verse1)
   C                D                Em               G5
e|------------------------2---2------------------------------------------|
B|-------1--------------3---3---3----------0----------------3------------|
G|-----0---0----------2-----------2------0---0------------0---0----------|
D|---2-------2---2--0------------------2-------2---2----0-------0---0----|
A|-3-----------3---------------------------------------------------------|
E|-----------------------------------0-----------0----3-----------3------|
   C                D                Em      Esus2*   Em
e|------------------------0----------------------------------------------|
B|-------1--------------3---3--------------0-------0--------0------------|
G|---------0----------2-------2---2------0-------2--------0---0----------|
D|---0h2-----2---2--0-----------0------2-----2/4--------2-------2--------|
A|-3-----------3---------------------------------------------------------|
E|-----------------------------------0----------------0-----------0------|
   C            D                Em              G5               Am
e|--------------------2--------------------------------------------------|
B|-------1----------3---3--------------0---------------3----------------1|
G|---------0------2-------2---2------0---0-----------0---0------------2--|
D|---0h2-----2--0-----------0------2-------2-------0-------0--------2----|
A|-3--------------------------------------------------------------0------|
E|-------------------------------0-----------0-2-3-----------3-----------|
            Bsus4           B
e|-----------------------------|
B|----------------5--5------4--|
G|-2------------4------4----4--|
D|---2--------4----------4--4--|
A|-----0----2---------------2--|
E|-----------------------------|

CHORUS2
   C                D              G5      D/F#   Em          C
e|------------------------2----------------------------------------------|
B|-------1---0----------3---3------------3------------0-------------1----|
G|-----0---0---0------2-------2--------0-------2---------0--------0---0--|
D|---2-----------2--0-----------0----0-------0------2------2----2--------|
A|-3----------------------------------------------------------3----------|
E|---------------------------------3-------2------0----------------------|
          D              Em       Esus2*  Em              C
e|--------------2--------------------------------------------------------|
B|-0----------3---3------------0-------0--------0---------------1--------|
G|---0------2-------2--------0-------2--------0---0-----------0---0---0--|
D|-----2--0-----------0----2-----2/4--------2-------2---2---2-------2---2|
A|--------------------------------------------------------3--------------|
E|-----------------------0----------------0-----------0------------------|
   D              G5      D/F#   Em          C                Dsus2
e|-------2----------------------------------------------------------0----|
B|-----3---3------------3------------0-------------1---0----------3---3--|
G|---2-------2--------0-------2--------0---------0---0---0------2--------|
D|-0-----------0----0-------0------2------2----2-----------2--0----------|
A|-------------------------------------------3---------------------------|
E|----------------3-------2------0---------------------------------------|
         INTERLUDE2 starts>>
           Em      Esus2*  Em       Esus2*  Em      Esus2* Em
e|-----0-|-----------------------------------------------------------------|
B|---3---|-------0--3p0----------0-----3p0--------0--3p0---------0---------|
G|-2-----|-----0---------------0----------------0--------------0---0-------|
D|-------|---2------4--------2-----2/4--------2------4-------2-------2-----|
A|-------|-------------------------------------------------------------0-2-|
E|-------|-0---------------0----------------0--------------0---------------|


CHORUS3
   C                D                G5      D/F#   Em               C
e|-------------------------------------------------------------------------|
B|-------1---1----------3---3---3--------3-------3------0---0---0--------0-|
G|-----0---0---0------2---2---2---2--------0---2----------0---0---0--------|
D|---2-----------2--0------------------0--------------2----------------2---|
A|-3-----------------------------------------------------------------3-----|
E|-----------------------------------3-------2------0----------------------|
              D              Em                                C
e|-------------------------------------------------------------------------|
B|---0---0--------3---3---3--------0-------0--------0---0----------------1-|
G|-0---0---0----2---2---2--------0---0---0--------0---0---0--------0-------|
D|------------0----------------2-------2--------2-----------2----2---0h2---|
A|-------------------------------------------------------------3-----------|
E|---------------------------0----------------0----------------------------|
        D              G5      D/F#    Em               C
e|------------0------------------------------------------------------------|
B|----------3---3------------3---------------0--------------------1--------|
G|-0------2-------2--------0--------0------0---0------------0-------0------|
D|---2--0-----------0----0--------2------2-------2---2----2---0h2-----2----|
A|------------------------------------------------------3------------------|
E|---------------------3--------2------0-----------0-----------------------|
   D              C                Dsus2          C                D
e|-------2-------------------------------0-------------------------------2-|
B|-----3---3------------1---0----------3---3------------1---0----------3---|
G|---2-------2--------0---0---0------2-------2--------0---0---0------2-----|
D|-0-----------0----2-----------2--0-----------0----2-----------2--0-------|
A|----------------3-------------------------------3------------------------|
E|-------------------------------------------------------------------------|
           Em      Esus2*   Em       Esus2*     Em      Esus2*   Em
e|-------|----------------------------------|  ----------------------------|
B|-3-----|-------0-------0--------0-----3p0-|  -------0-------0--------0---|
G|---2---|-----0-------2--------0-----------|x3-----0-------2--------0---0-|
D|-----0-|---2-----2/4--------2-----2/4-----|  ---2-----2/4--------2-------|
A|-------|----------------------------------|  ----------------------------|
E|-------|-0----------------0---------------|  -0----------------0---------|

INTRO

VERSE1
De fanns en tid när vi njöt av varann, när vi älska me varann
Vi va två, fast som en
De fanns en frid i vårt sett i att se så klart, vad kan bli mer underbart
Min vän

CHORUS1
Men när jag håller dig tillbaka, när jag håller dig för hårt
Finns en bot för de ja saknat, i min röst i mina spår
När mitt sinne rinner över, när mitt hjärta inte slår för oss
E de dig ja mest behöver, älska mig som mest då

INTERLUDE1

VERSE2
Ljuger för dig varje dag ja e för feg, för o säga som de e
För o visa mig så svag
Djupt i botten av min själ finns e trasig liten ask, den e din om du vill
Bli min igen

CHORUS2
Men när jag håller dig tillbaka, när jag håller dig för hårt
Finns en bot för de ja saknat, i min röst i mina spår
När mitt sinne rinner över, när mitt hjärta inte slår för oss
E de dig ja mest behöver, älska mig som mest då

INTERLUDE2

CHORUS3
När ja håller dig tillbaka, när ja håller dig för hårt
Finns en bot för de ja saknat, i min röst i mina spår
När mitt sinne rinner över, när mitt hjärta bara slår o slår
E de dig ja mest behöver, älska mig som mest då
Älska mig som mest då
Älska mig som mest då.

=========================================================================
Comment, rate, appreciate!
            
Hard to play? Try these video lessons and learn fast. | Correct




comments powered by Disqus
↑ Back to top | Tablatures and chords are parodies/interpretations of the original songs. You may use it for private study, scholarship, research or language learning purposes only