» » »

Patrick Wolf, Tristan Tabs (ver.1)

Artists:  A B C D E F G H I J K L M N O P Q R S T U V W X Y Z # 

Tristan Tabs (ver.1)

Patrick Wolf Tabs
 Rating:
4/5 (6 votes)
Tristan lessons Tabs too difficult? Try these video lessons and learn fast
                e-121212-121212----|
B-121212-121212----|
G-121212-121212----| Played as intro, and also in the background throughout the 
D------------------| whole song
A------------------|
E------------------|


Main Riff:
e-----------------|
B-----------------|
G-----x-4---------|
D-6-x-x-4-66/4/6--|x3
A-6-x-x-2-66/4/6--|
E-4-x-----44/2/4--|
 
third time:
e-----------------|
B-----------------|
G-----x-4---------|
D-6-x-x-4-66/4/6--|PAUSE
A-6-x-x-2-66/4/6--|
E-4-x-----44/2/4--|            


         e-----------------|
         B-----------------|
         G-----x-4---------|
         D-6-x-x-4-66/4/6--|
         A-6-x-x-2-66/4/6--|
         E-4-x-----44/2/4--|
I am the  tragedy...


---------|                               -------------|
---------|                               -------------|
---------|                               --x--x--x----|
-66/4/6--|          PAUSE                --x--x--x----|
-66/4/6--|                               --x--x--x----|
-44/2/4--|                               -------------|
my name is tristan..     and I am alive   UH  UH UGH!




Chorus:
e------------------------------|
B------------------------------|
G-44-xxxx-66-------------------|
D-44-xxxx-66-6-6/4/6--xxx------|
A-22-xxxx-44-6-6/4/6--xxx------|
E------------4-4/2/4--xxx------|

Main riff again.

Etc

It is pretty basic. =\
Yeah

<3
xx
            
Submit corrections

comments powered by Disqus
↑ Back to top | Patrick Wolf Tabs for Tristan. Lyrics for acoustic guitar and electric guitar. Tablatures and chords are parodies/interpretations of the original songs. You may use it for private study, scholarship, research or language learning purposes only