» » »

The Shadowsea Tabs (ver.1)

Artists:  A B C D E F G H I J K L M N O P Q R S T U V W X Y Z # 

The Shadowsea Tabs (ver.1)

Patrick Wolf
Rating:
0/5 (0 votes)

Hard to play? Try these video lessons and learn fast.
                -------------------------------------------------------------------------------
-------------------------------------------------------------------------------

Tuning: EADGBe


    Too many sails not enough breeze...
e|--------------------------------------------|
B|--------------------------------------------|
G|--------------------------------------------|
D|---------------------7----------------------|
A|-8---------5------------------------10------|
E|--------------------------------------------|

Repeat 4 times and then end in:

 ...to sail on out of your shadowseas.
e|--------------------------------------------|
B|--------------------------------------------|
G|--------------------------------------------|
D|---------------------7----------------------|
A|-8---------5--------------------------------|
E|--------------------------------------------|


Too many sails
not enough breeze
to sail on out
of your shadowseas

Too many rocks
not enough breeze
to sail on out
of your shadowseas

to sail on out
of your shadowseas
            
Hard to play? Try these video lessons and learn fast. | Correct




comments powered by Disqus
↑ Back to top | Tablatures and chords are parodies/interpretations of the original songs. You may use it for private study, scholarship, research or language learning purposes only