» » »

Pigeon Song Tabs (ver.2)

Artists:  A B C D E F G H I J K L M N O P Q R S T U V W X Y Z # 

Pigeon Song Tabs (ver.2)

Patrick Wolf
Rating:
0/5 (0 votes)

Hard to play? Try these video lessons and learn fast.
                -------------------------------------------------------------------------------
                           Pigeon Song - Patrick Wolf
-------------------------------------------------------------------------------

Tuning: Standard

This riff repeats through the whole song. I'm not sure what the bass note is for the 
two repetitions but this sounds right to me. To make for a cleaner sound you can put a capo 
1st fret, simplify your job. Comments, questions, send me an e-mail.
e|---------------------------------------------------------------------------|
B|-----1--1-------1--1-------1---1--------1---1------------------------------|
G|---------------------------------------------------------------------------|
D|---3--3--3----3--3--3----3---3---3----3---3---3----------------------------|
A|-1-------------------------------------------------------------------------|
E|------------1---------3-------------3--------------------------------------|


| /  slide up
| \  slide down
| h  hammer-on
| p  pull-off
| ~  vibrato
| +  harmonic
| x  Mute note
===============================================================================
            
Hard to play? Try these video lessons and learn fast. | Correct




comments powered by Disqus
↑ Back to top | Tablatures and chords are parodies/interpretations of the original songs. You may use it for private study, scholarship, research or language learning purposes only