>
 >
Queso Ruso

Queso Ruso Guitar Tabs

Patricio Rey - Queso Ruso chords, tabs, tablatures, lyrics

Guitar lessons | Add/correct | Request | Top 50 tabs Artists:  A B C D E F G H I J K L M N O P Q R S T U V W X Y Z 0-9

Queso Ruso Guitar Tabs – Patricio Rey

CD, Sheet music, Poster

Do you like Queso Ruso? Share with your friends now
Tabs
intro

guitarra:   SI5             SOl5         LA5    |.Si5.....X3......|   SOL5    LA5    |....X4...|
E|---------------------|-------------|---------||-----------------||------|---------||---------||
B|---------------------|-------------|---------||-----------------||------|---------||---------||
G|---------------------|-------------|---------||-----------------||------|---------||---------||
D|------9--------9-----|------5------|-----7---||----9--------9---||---5--|----7----||-----9---||
A|----9---9----9---9---|----5---5----|---7---7-||--9---9----9---9-||-5--5-|--7---7--||---9---9-||
E|--7--------7-------/-|--3--------/-|-5-------||7--------7-------||3----/|-5------/||-7-------||

guitarra 2
                                               (aca hace este riff )                  (y aca)
E|---------------------------------------------||-5--------(7b)~--||----------------||5-----(7)||
B|---------------------------------------------||----7--6--(7b)~--||--dejar-sonar---||--7-6-(7)||
G|---------------------------------------------||-----------------||----------------||---------||
D|---------------------------------------------||-----------------||----------------||---------||
A|---------------------------------------------||-----------------||----------------||---------||
E|---------------------------------------------||-----------------||----------------||---------||

BAJO:        SI5             SOl5         LA5   |.Si5.....X3......|   SOL5    LA5    |....X4...|
G|---------------------|-------------|---------||-----------------||-------|--------||---------||
D|---------------------|-------------|---------||-----------------||-------|--------||---------||
A|---------------------|-------------|---------||-----------------||-------|--------||---------||
E|-(7)-----------------|-(3)---------|-(5)-----||-(7)-------------||-(3)---|-(5)----||-(7)-----||


PRE-VERSO:

guitarra:
   Si    Do#              Si    Do#              Si    Do#              Si    Do#
E|-----------|----------|-----------|----------|-----------|----------|-----------|
B|-----------|----------|-----------|----------|-----------|----------|-----------|
G|-----------|----------|-----------|----------|-----------|----------|-----------| silencio
D|--4--/--6--|----------|--4--/--6--|----------|--4--/--6--|----------|--4--/--6--|
A|--2--/--4--|----------|--2--/--4--|----------|--2--/--4--|----------|--2--/--4--|
E|-----------|----------|-----------|----------|-----------|----------|-----------|

BAJO:Si   Do#              Si    Do#              Si    Do#              Si    Do#
G|-----------|----------|-----------|----------|-----------|----------|-----------|
D|-----------|----------|-----------|----------|-----------|----------|-----------| silencio
A|--2-----4-4|-2-1-2-(1)|--2-----4-4|-0-1-2-1--|--2-----4-4|-2-1-2-1--|--2----(4)-|
E|-----------|----------|-----------|----------|-----------|----------|-----------|

VERSO 1:

SI -Do#m                   SI-Do#m
Paso de moda el golfo como todo ¿viste vos?
   SI-Do#m                     SI-Do#m
Como tanta otra tristeza a la que te acostumbras
LA-SI                       LA- SI
Ahora vas comprando perlas truchas sin chistar
   Si-Do#m               Si-Do#m
"Calles inteligentes" alemanas para armar.

guitarra:
   Si    Do#              Si    Do#              Si    Do#              Si    Do#
E|-----------|----------|-----------|----------|-----------|----------|-----------|
B|-----------|----------|-----------|----------|-----------|----------|-----------|
G|-----------|----------|-----------|----------|-----------|----------|-----------| silencio
D|--4--/--6--|---%------|--4--/--6--|----%-----|--4--/--6--|----%-----|--4--/--6--|
A|--2--/--4--|----------|--2--/--4--|----------|--2--/--4--|----------|--2--/--4--|
E|-----------|----------|-----------|----------|-----------|----------|-----------|

BAJO:
    Si   Do#              Si    Do#              Si    Do#              Si    Do#
G|-----------|----------|-----------|----------|-----------|----------|-----------|
D|-----------|----------|-----------|----------|-----------|----------|-----------| silencio
A|--2-----4--|---*------|--2-----4--|---*------|--2-----4--|---*------|--2-----4--|
E|-----------|----------|-----------|----------|-----------|----------|-----------|

*:tambien se puede poner los arreglos del pre-verso.

sigue asi...

guitarra:
   la    si               la    si               Si    Do#              Si    Do#
E|-----------|----------|-----------|----------|-----------|----------|-----------|
B|-----------|----------|-----------|----------|-----------|----------|-----------|
G|-----------|----------|-----------|----------|-----------|----------|-----------|
D|-----------|---%------|-----------|----%-----|--4--/--6--|----%-----|--4--/--6--|X1
A|--7--/--9--|----------|--7--/--9--|----------|--2--/--4--|----------|--2--/--4--|
E|--5--/--7--|----------|--5--/--7--|----------|-----------|----------|-----------|

BAJO:
   la    si       *       la    si      *        Si    Do#               Si    Do#
G|-----------|----------|-----------|----------|-----------|----------|-----------|
D|-----------|----------|-----------|----------|-----------|----------|-----------|X1
A|-----------|----------|-----------|-3-4-5-4--|--2-----4--|---*------|--2-----4--|
E|--5-----7-7|-5-4-5-4--|--5-----7-7|----------|-----------|----------|-----------|

ESTRIBILLO:


   Sim            Sol    LA   SIm  +(riff1)
Y muchos marines de los mandarines
      Sim                Sol    LA         Sim
que cuidan por vos las puertas del nuevo cielo.


guitarra:
                                                        RIff1
E|---------|-----------|-------------|----------|----|--------------|-------|----|
B|---------|-----------|-------------|----------|----|--------------|-------|----|
G|---------|-----------|-------------|----------|----|5-7-8-7-5-(7b)|-5-----|----|
D|--Si5----|--Si5------|----SOL5-----|--LA5-----|-SI5|--------------|---(4)~|----|
A|---------|-----------|-------------|----------|----|--------------|-------|----|
E|---------|-----------|-------------|----------|----|--------------|-------|----|

--|---------|-----------|-------------|----------|----|----------|----------||
--|---------|-----------|-------------|----------|----|----------|----------||
--|---------|-----------|-------------|----------|----|----------|----------||
--|--Si5----|--Si5------|----SOL5-----|--LA5-----|-SI5|--SI5-----|---SI5----||
--|---------|-----------|-------------|----------|----|----------|----------||
--|---------|-----------|-------------|----------|----|----------|----------||

BAJO:
    SI       SI            SOL           LA       SI      SI           SI
G|---------|-----------|-------------|----------|----|--------------|---------|----|
D|---------|-----------|-------------|----------|----|--------------|---------|----|
A|---------|-----------|-------------|----------|----|--------------|---------|----|
E|077777777|-777777777-|-3--3--3--3--|-5--5--5-5|7777|-7-7-7-7-7-7-7|-7777777-|----|

    SI        SI             SOL         LA       SI     SI         SI
--|---------|-----------|-------------|----------|----|----------|----------||
--|---------|-----------|-------------|----------|----|----------|----------||
--|---------|-----------|-------------|----------|----|----------|----------||
--|-77777777|-77777777--|-3--3--3--3--|-5--5-5-5-|7777|-77777777-|-77777777-||


Verso 2: (IGUAL)

SI -Do#m                   SI-Do#m
El bronceador "Charlotte" te cuida de la radiación
SI -Do#m                   SI-Do#m
rematan el electro de Elvis al morir
LA-SI                       LA- SI
fijate de que lado de la mecha te encontrás
SI -Do#m                   SI-Do#m
Con tanto humo el bello fiero fuego no se vé.


ESTRIBILLO 2:


   Sim            Sol    LA   SIm  +(riff1)
Y hay algo en vos que está empezando a asustarte
      Sim                Sol    LA         Sim
Cosas de hechicería desafortunada .


Solo DE GUITARRA:

BAJO durante el solo;

    Si   Do#              Si    Do#            Si    Do#             Si    Do#
G|-----------|----------|-----------|---------|-----------|---------|-----------|--------------|
D|-----------|----------|-----------|---------|-----------|---------|-----------|--------------|
A|--2-----4-4|-2-1-2-(1)|--2-----4-4|-0-1-2-1-|--2-----4-4|-2-1-2-1-|--2-----4-4|-33-2-2--1-1-/|
E|-----------|----------|-----------|---------|-----------|---------|-----------|--------------|
   Si   Do#               Si    Do#              Si    Do#             Si    Do#
G|-----------|----------|-----------|---------|-----------|---------|-----------|--------------|
D|-----------|----------|-----------|---------|-----------|---------|-----------|--------------|
A|--2-----4-4|-2-1-2-(1)|--2-----4-4|-0-1-2-1-|--2-----4-4|-2-1-2-1-|--2-----4-4|-33-2-2--1-1-/|
E|-----------|----------|-----------|---------|-----------|---------|-----------|--------------|


guitarra solo:  (falta el solo)
con WAH WAH.

E|-----------------------------------------------------------------------------------|
B|-----------------------------------------------------------------------------------|
G|-(17b)--15-14---------------------15p13----(10b)-----------------------------------|
D|--------------16-16-14-----(14b)--------14-------10b-(11b)----sigue----------------|
A|-----------------------16b---------------------------------------------------------|
E|-----------------------------------------------------------------------------------|

E|-----------------------------------------------------------------------------------|
B|-----------------------------------------------------------------------------------|
G|-----------------------------------------------------------------------------------|
D|-----------------------------------------------------------------------------------|
A|-----------------------------------------------------------------------------------|
E|-----------------------------------------------------------------------------------|


SOLO DE SAXO

base de BAJO:
   mi                   la          mi                la
G|------------------|------------|-----------------|---------------|
D|------------------|------------|-----------------|---------------|
A|------------------|---------5--|-----------------|---------5-----|
E|-(0)--------------|--5---7-----|-(0)-------------|--5---7--------|

guitarra:
   mi                  la            mi                la
E|------------------|------------|-----------------|---------------|
B|------------------|------------|-----------------|---------------|
G|------------------|------------|-----------------|---------------|
D|-(9)------(9)-(9)-|------------|(9)------(9)-(9)-|---------------|
A|-(7)-7777-(7)-(7)-|---------5~-|(7)-7777-(7)-(7)-|--------(5~)---|
E|------------------|--5---7-----|-----------------|--5---7--------|
    PM ....                          .....

PRE_VERSO:


guitarra:
   Si    Do#              Si    Do#              Si    Do#              Si    Do#
E|-----------|----------|-----------|----------|-----------|----------|-----------|
B|-----------|----------|-----------|----------|-----------|----------|-----------|
G|-----------|----------|-----------|----------|-----------|----------|-----------| silencio
D|--4--/--6--|----------|--4--/--6--|----------|--4--/--6--|----------|--4--/--6--|
A|--2--/--4--|----------|--2--/--4--|----------|--2--/--4--|----------|--2--/--4--|
E|-----------|----------|-----------|----------|-----------|----------|-----------|

BAJO:Si   Do#              Si    Do#              Si    Do#              Si    Do#
G|-----------|----------|-----------|----------|-----------|----------|-----------|
D|-----------|----------|-----------|----------|-----------|----------|-----------| silencio
A|--2-----4-4|-2-1-2-(1)|--2-----4-4|-0-1-2-1--|--2-----4-4|-2-1-2-1--|--2----(4)-|
E|-----------|----------|-----------|----------|-----------|----------|-----------|

VERSO 3: (igual)

Quedate con el vuelto, mula de la enfermedad
Pobrete que sos tropa de la guita y chimpancé
Quedate esa petaca con saliva y nada más
mordiéndote la lengua por poco me engañas.


repite ESTRIBILLO:

   Sim            Sol    LA   SIm  +(riff1)
Sentís la mosca joder detrás de la oreja
      Sim         Sol    LA     Sim     (la - re +solo de saxo)
Y chupás la fruta sin poder morderla.

SOLO de saxo 2:

BAJO:  re      la      re        la       re        la       MI          FA#       SI
G|---------|---------|---------|---------|---------|---------|----------|-----------|----------|
D|---------|---------|---------|---------|---------|---------|----------|-----------|----------|
A|--5-5----|---------|--5-5----|---------|--5-5----|---------|----------|-----------|----------|
E|---------|--5-5----|---------|--5-5----|---------|--5--5---|-00000000-|-22222222--|--/-7-----|

guitarra. re    la        re        la       re        la
e|---------|---------|---------|---------|---------|---------|----------|-----------|----------|
B|---------|---------|---------|---------|---------|---------|----------|-----------|----------|
G|---------|---------|---------|---------|---------|---------|----------|-----------|---el-----|
D|--7-7-x-7|---------|--7-7-x-7|---------|--7-7-x-7|---------|---MI-----|--FA#5-----|--solo----|
A|--5-5-x-5|--7-7-x-7|--5-5-x-5|--7-7-x-7|--5-5-x-5|--7-7-x-7|----------|-----------|----------|
E|---------|--5-5-x-5|---------|--5-5-x-5|---------|--5-5-x-5|----------|-----------|----------|


SOLO DE GUITARRA 2 :

bajo:
G|-----|-----|-----|-----|-----|-------|----------|-------||
D|-----|-----|-----|-----|-----|-------|----------|-------||
A|-----|-----|-----|-----|-----|-------|----------|-------||
E|--7--|--7--|--7--|--7--|--7--|--7--7-|--7-7-7-7-|-7-7-7-||


solo de guitarra (WAh WAH)

E|-----------------------------------------------------------------------------------|
B|-----------------------------------------------------------------------------------|
G|-----------------------------------------------------------------------------------|
D|-----------------------------------------------------------------------------------|
A|-----------------------------------------------------------------------------------|
E|-----------------------------------------------------------------------------------|


VERSO 4: (repite el verso 1)

SI -Do#m                   SI-Do#m
Paso de moda el golfo como todo ¿viste vos?
   SI-Do#m                     SI-Do#m
Como tanta otra tristeza a la que te acostumbras
LA-SI                       LA- SI
Ahora vas comprando perlas truchas sin chistar
   Si-Do#m               Si-Do#m
"Calles inteligentes" alemanas para armar.

REPITE EL ESTRIBILLO:  X 6 hasta el final


   Sim            Sol    LA   SIm
Y muchos marines de los mandarines
      Sim                Sol    LA         Sim
que cuidan por vos las puertas del nuevo cielo.


FINAL CON FADE OUT...


NOTA:  Apartir de la 3era vuelta de este estribillo la guitarra 2 va haciendo unos arreglos





Comments


Popular Patricio Rey tabs & chords
Alien Dulce Bass Tabs
Jijiji Bass Tabs
Motorpsico Bass Tabs
Un Poco De Amor Frances Chords
Alien Dulce Tabs
Cana Seca Y Un Membrillo Tabs
Cruz Diablo Tabs
Esa Estrella Era Mi Lujo Tabs
Aquella Solitaria Vaca Cubana Ukulele
Un Poco De Amor Frances Ukulele


Song lyrics



↑ Back to top | Tablatures and chords are parodies/interpretations of the original songs. You may use it for private study, scholarship, research or language learning purposes only
© 2014 AZChords.com Contact us | Privacy policy | DMCA | Add/correct tabs | Request tabs | Top 50 tabs