» » »

Patricio Rey, Motorpsico Bass tabs (ver.1)

Artists:  A B C D E F G H I J K L M N O P Q R S T U V W X Y Z # 

Motorpsico Bass tabs (ver.1)

Patricio Rey Tabs
 Rating:
4/5 (4 votes)
Motorpsico lessons Tabs too difficult? Try these video lessons and learn fast
1
                intro:
g|---------------------------------------------------------------------|
d|---------------------------------------------------------------------|
a|-------------------------------5(dejar sonar un rato)--5-5---------5-|
e|---6(dejar sonar un rato)-6-6------------------------------6----5^6--|

g|-----------------------------------|
d|-----------------------------------|
a|--5-5-----------5-----5-5---------5|
e|------6-----5^6-----------6---5^6--|

 R1:

g|---------------------------------------------------------|
d|---------------------------------------------------------|
a|-5--5--3(dejar sonar)---3--3--1(dejar sonar)-1--3--3-0--5| x2
e|---------------------------------------------------------|

 R2:

g|-------------------------------------------------------|
d|-------------------------------------------------------|
a|--5--5-------------5(dejar sonar)---5--5--------------5| x2
e|-------6-------5^6-----------------------6--------5^6--|

 R1 x2


 R2 X2

 R1 x2


 Solo: entra con la bateria

g|---------------------------------------|
d|---------------------------------------|
a|---3--1----0----5--5-5-3---1---3---5---|
e|---------------------------------------|

g|--------------------------------------|
d|--------------------------------------|
a|--5-5-3---1---0---5--5-5-3---1---3---5|
e|--------------------------------------|

 R1 X2

 R2 X2
            
Submit corrections

comments powered by Disqus
↑ Back to top | Patricio Rey Bass for Motorpsico. Lyrics for acoustic guitar and electric guitar. 1 Tablatures and chords are parodies/interpretations of the original songs. You may use it for private study, scholarship, research or language learning purposes only