>
 >
Jijiji 1

Jijiji 1 Guitar Tabs

Patricio Rey - Jijiji 1 chords, tabs, tablatures, lyrics

Guitar lessons | Add/correct | Request | Top 50 tabs Artists:  A B C D E F G H I J K L M N O P Q R S T U V W X Y Z 0-9

Jijiji 1 Guitar Tabs – Patricio Rey

CD, Sheet music, Poster

Do you like Jijiji 1? Share with your friends now
Bass TabsTabsTabs v2
Intro: Riff 1 x2
        Rem x2           La7 x2          Mim7(b5)x2        Rem x2
e|---------------1-|----------------|--------------3-|-------------1-|
B|---------------3-|--------------2-|--------------2-|-------------3-|
G|---------------2-|----------------|--------------3-|-------------2-|
D|-0-0-0-0-0-0-----|-2-2-2-2-2-2--2-|-2-2-2-2-2-2—-2-|0-0-0-0-0-0-0--|
A|-----------------|----------------|----------------|---------------|
E|-----------------|----------------|----------------|---------------|

Verso 1: Riff 1
Rem                              La7
 En este film, velado en blanca noche
Mim7(b5)                 Rem
 El hijo tenaz de tu enemigo
Rem                        La7
El muy verdugo cena distinguido
Mim7(b5)                           Rem   Do5
Una noche de cristal que se hace ańicos

Estribillo:

F5             Do5
 No lo sońé eeeeeee!
Sib5                       (Riff 2)
 se enderezó y brindó a tu suerte
F5             Do5
 No lo sońé eeeeeee!
Sib5                       (Riff 2)
 y se ofreció mejor que nunca
Sib5                  Fa5
 no mires por favor, y no prendas la luz
Sol5                LA5
 la imagen te desfiguró.

Riff 2:
e|-----------------|
B|--6-5------------|
G|------7-5---5-7--|
D|----------7------|
A|-----------------|
E|-----------------|

Verso 2:(Igual)

Rem                         La7
Este film da una imagen exquisita.
Mim7(b5)                   Rem
Esos chicos son como bombas pequeńitas
Rem                         La7
el peor camino a la cueva del perico
Mim7(b5)                    Rem        Do5
para tipos que no duermen por la noche

Estribillo:(Igual)
Fa5            Do5
 No lo sońé eeeeeee!
Sib5                  Riff 2
 ibas corriendo a la deriva
Fa5             Do5
 No lo sońé eeeeeee!
Sib5                      Riff 2
 Los ojos ciegos bien abiertos
Sib5                  Fa5
 no mires por favor, y no prendas la luz
Sol5                 LA5
 la imagen te desfiguró

Corte: Rem - Solm - LA7 x4

Solo de guitarra: Base en (Rem - La- La – Rem)

e|-----------5-5-5—3L-5L-3L--1-0---|---------------0-(-3-1-0-)x6-|
B|-----5-6-8---------------------3-|-3-3-3-3-2-2-3---------------|
G|---7-----------------------------|-----------------------------|
D|-7-------------------------------|-----------------------------|
A|---------------------------------|-----------------------------|
E|---------------------------------|-----------------------------|

e|-------0-1-0---------|----|-------------------------|------------------|
B|-3-2-3-------3-2-3---|----|-------------------------|------------------|
G|-------------------x2|-10-|-12-10-9-10-9------------|------------------|
D|---------------------|----|-------------10-10-12-10-|10-12-10-12-12-12-|
A|---------------------|----|-------------------------|------------------|
E|---------------------|----|-------------------------|------------------|

e|--------------10--------10-12(13)/12-|--13L-15L-13L--15-13-12-13-12--|
B|-----------10----13(15)--------------|-------------------------------|
G|-10-12(14)---------------------------|-------------------------------|
D|-------------------------------------|-------------------------------|
A|-------------------------------------|-------------------------------|
E|-------------------------------------|-------------------------------|

e|---------------------------------------------------10-------------------|
B|-13-13-15-13--------------10--------------------10----13----------------|
G|-----------------10-12-13----12-10----10-12(14)----------12(14)/12L-10L-|
D|--------------12-------------------12-----------------------------------|
A|------------------------------------------------------------------------|
E|------------------------------------------------------------------------|

e|-------------(-15(17)-15(17)-15(17)/15-13-)x2-15-13----13-(-20(22)x3-20-|
B|----------------------------------------------------15------------------|
G|-------10---------------------------------------------------------------|
D|-12-10----12------------------------------------------------------------|
A|------------------------------------------------------------------------|
E|------------------------------------------------------------------------|


Verso 3:(igual)
El montaje final es muy curioso
es en verdad realmente entretenido
Vas en la oscura multitud desprevenido
tiranizando a los que te han querido

Fa5              Do5                            Riff 3
 No lo sońé eeeeeeee!                        e|------------------------|
Sib5                             Riff 3      B|-6-5--------------------|
 se enderezó y brindó a tu suerte            G|-----7-5---5-7--5---5-7-|
Fa5              Do5                         D|---------7--------7-----|
  No lo sońé eeeeeeee!                       A|------------------------|
Sib5                           Riff 3        E|------------------------|
 y se ofreció mejor que nunca
Fa5              Do5
 No lo sońé eeeeeeee!
Sib5                        Riff 3
 ibas corriendo a la deriva
Fa5              Do5
 No lo sońé eeeeeeee!
Sib5                         Riff 3
 los ojos ciegos bien abiertos
Sib5                  Fa5
 No mires por favor, y no prendas la luz
Sol5                   LA5-LA#5 x4
 La imagen te desfiguró

L: Ligado
12(14): Estirar la cuerda hacia arriba para llegar ala otra nota.





Comments


Popular Patricio Rey tabs & chords
Jijiji Bass Tabs
Aquella Solitaria Vaca Cubana Chords
El Pibe De Los Astilleros Chords
Un Poco De Amor Frances Chords
An Fi Frufi Fali Fru Tabs
Cana Seca Y Un Membrillo Tabs
Cruz Diablo Tabs
Esa Estrella Era Mi Lujo Tabs
Jijiji Tabs
Aquella Solitaria Vaca Cubana Ukulele


Song lyrics



↑ Back to top | Tablatures and chords are parodies/interpretations of the original songs. You may use it for private study, scholarship, research or language learning purposes only
© 2014 AZChords.com Contact us | Privacy policy | DMCA | Add/correct tabs | Request tabs | Top 50 tabs