» » »

Jijiji Bass tabs (ver.1)

Artists:  A B C D E F G H I J K L M N O P Q R S T U V W X Y Z # 

Jijiji Bass tabs (ver.1)

Patricio Rey
Rating:
0/5 (0 votes)

Hard to play? Try these video lessons and learn fast.
                Ji Ji Ji - Patricio Rey y sus Redonditos de Ricota.

Intro hasta el estribillo:

G|----------------|----------------|----------------|----------------------------|
D|----------------|----------------|----------------|----------------------------|
A|--5-----5------7---|---7-------4-----4-|-----5-------5----|------5-------5-----|
E|-----5-------5----|--5------5-----5---|---5------5-------|---5--------5--------|

Estribillo:

G|----------------|----------------|----------------|---------------------------|
D|----------------|----------------|--------|-0(x8)-----------------------------|
A|----------------|-3(x8)----------|-1(x8)-----------|-1(x8)--------------------|
E|-1(x8)---------------|-------------|---------|------------1(x8)-3(x8)-5(x8)---|


Se repite la intro hasta el próximo estribillo:

G|----------------|----------------|----------------|----------------------------|
D|----------------|----------------|----------------|----------------------------|
A|--5-----5------7---|---7-------4-----4-|-----5-------5----|------5-------5-----|
E|-----5-------5----|--5------5-----5---|---5------5-------|---5--------5--------|

Estribillo:

G|----------------|----------------|----------------|---------------------------|
D|----------------|----------------|--------|-0(x8)-----------------------------|
A|----------------|-3(x8)----------|-1(x8)-----------|-1(x8)--------------------|
E|-1(x8)---------------|-------------|---------|------------1(x8)-3(x8)-5(x8)---|

Pre solo de guitarra (se repite 4 veces):

G|----------------|----------------|----------------|-------------------|
D|----------------|----------------|----------------|-------------------|
A|-------5---------|----------------|----------------|------------------|
E|----------------|--------3--------|--------5--------|-----------------|


Durante el solo de guitarra el bajo hace lo mismo que en la intro, pero con diferente ritmo:

G|----------------|----------------|----------------|----------------------------|
D|----------------|----------------|----------------|----------------------------|
A|--5-----5------7---|---7-------4-----4-|-----5-------5----|------5-------5-----|
E|-----5-------5----|--5------5-----5---|---5------5-------|---5--------5--------|


Estribillo (se repite 2 veces):

G|----------------|----------------|----------------|---------------------------|
D|----------------|----------------|--------|-0(x8)-----------------------------|
A|----------------|-3(x8)----------|-1(x8)-----------|-1(x8)--------------------|
E|-1(x8)---------------|-------------|---------|------------1(x8)-3(x8)-5(x8)---|


Escuchen el tema para saber el ritmo.

Saludos, Fermín.
            
Hard to play? Try these video lessons and learn fast. | Correct




comments powered by Disqus
↑ Back to top | Tablatures and chords are parodies/interpretations of the original songs. You may use it for private study, scholarship, research or language learning purposes only