» » »

Pat Monahan, Her Eyes Tabs (ver.1)

Artists:  A B C D E F G H I J K L M N O P Q R S T U V W X Y Z # 

Her Eyes Tabs (ver.1)

Pat Monahan Tabs
 Rating:
4/5 (8 votes)
Her Eyes lessons Tabs too difficult? Try these video lessons and learn fast
                -------------------------------------------------------------------------------
                             Pat Monahan - Her Eyes
-------------------------------------------------------------------------------



song being performed, and actually being able to see the chords.  Comments, suggestions, 


Tuning: Standard, CAPO 3rd FRET (all chords relative to capo)


INTRO
  Em  G  A  F#?
|---------------|
|-----3--0------|
|--0--0--2--2-0-|
|--2--0--2--0-0-| x2
|--2--2--0--0-0-|
|--0--3-----2---|

VERSE
  Em  G  A  F#?   Em  G  A       Em  G  A  F#?
|---------------|-------------|--------------|
|--0--3--0------|--0--3--0----|--------0-----|
|--0--0--2--2-0-|--0--0--2----|--0--0--2--2--|
|--2--0--2--0-0-|--2--0--2----|--2--0--2--0--|
|--2--2--0--0-0-|--2--2--0----|--2--2--0--0--|
|--0--3-----2---|--0--3-------|--0--3-----2--|

BRIDGE
   C    D
|--0----0--|
|--1----3--|
|--0----2--|
|--2----0--|
|--3-------|
|--3-------|

VERSE
  Em  G  A  F#?   Em  G  A       Em  G  A  F#?
|---------------|-------------|--------------|
|--0--3--0------|--0--3--0----|--------0-----|
|--0--0--2--2-0-|--0--0--2----|--0--0--2--2--|
|--2--0--2--0-0-|--2--0--2----|--2--0--2--0--|
|--2--2--0--0-0-|--2--2--0----|--2--2--0--0--|
|--0--3-----2---|--0--3-------|--0--3-----2--|

BRIDGE
   C    D
|--0----0--|
|--1----3--|
|--0----2--|
|--2----0--|
|--3-------|
|--3-------|

CHORUS
  Em  C  D  A     C  Em? D  A?
|--------0-----|-----?---0-----|
|--0--1--3--0--|--1--?---3--?--|
|--0--0--2--2--|--0--?---2--?--|
|--2--2--0--2--|--2--?---0--?--|
|--2--3-----0--|--3--?------?--|
|--0-----------|--3--?------?--|

   Em C  D  A     C  D  E
|--------0-----|-----0--------|
|--0--1--3--0--|--1--3--------|
|--0--0--2--2--|--0--2--0-----|
|--2--2--0--2--|--2--0--2-----|
|--2--3-----0--|--3-----2-----|
|--0-----------|--3-----0-----|

VERSE
  Em  G  A  F#?   Em  G  A       Em  G  A  F#?
|---------------|-------------|--------------|
|--0--3--0------|--0--3--0----|--------0-----|
|--0--0--2--2-0-|--0--0--2----|--0--0--2--2--|
|--2--0--2--0-0-|--2--0--2----|--2--0--2--0--|
|--2--2--0--0-0-|--2--2--0----|--2--2--0--0--|
|--0--3-----2---|--0--3-------|--0--3-----2--|

BRIDGE
   C    D
|--0----0--|
|--1----3--|
|--0----2--|
|--2----0--|
|--3-------|
|--3-------|

CHORUS
  Em  C  D  A     C  Em? D  A?
|--------0-----|-----?---0-----|
|--0--1--3--0--|--1--?---3--?--|
|--0--0--2--2--|--0--?---2--?--|
|--2--2--0--2--|--2--?---0--?--|
|--2--3-----0--|--3--?------?--|
|--0-----------|--3--?------?--|

   Em C  D  A     C  D  E
|--------0-----|-----0--------|
|--0--1--3--0--|--1--3--------|
|--0--0--2--2--|--0--2--0-----|
|--2--2--0--2--|--2--0--2-----|
|--2--3-----0--|--3-----2-----|
|--0-----------|--3-----0-----|

INTERLUDE - ?
CHORUS x2
INTRO part


LYRICS

She's not afraid; she just likes to use her night light
When she gets paid, true religion gets it all
If they fit right.

She's a little bit manic, completely organic
Doesn't panic for the most part.

She's old enough to know, and young enough not to say no
To any chance that she gets for home plate tickets to see the Mets.
Like everybody, she's in over her head,
Dreads Feds, Grateful Dead, and doesn't take meds.

She's a Gemini Capricorn
Thinks all men are addicted to porn.
I don't agree with her half the time,
But, damn I'm glad she's mine.

Her eyes, that's where hope lies.
That's where blue skies
Meet the sunrise.
Her eyes, that's where I go
When I go home.

She got the kinda strength that every man wishes he had.
She loved Michael Jackson up until he made Bad.

Tells me that she lives about a hundred lives,
Scares me to death when she thinks and drives,
Says cowboy hats make her look fat,
and I'm so glad she's mine.

Her eyes, that's where hope lies.
That's where blue skies
Meet the sunrise.
Her eyes, that's where I go
When I go home.

She doesn't know the word 'impossible'
Don't care where I've been and doesn't care where we're goin' to.
She takes me as I am, and that ain't easy.
She's beautiful. So beautiful.

And sometimes I think she's truly crazy.
And I love it.

Her eyes, that's where hope lies.
That's where blue skies
Always meet the sunrise.
Her eyes, that's where I go
When I go home.

Her eyes, that's where hope lies.
That's where blue skies
Always meet the sunrise.
Her eyes, that's where I go
When I go home.

She's not afraid
she just likes to use her night light.
            
Submit corrections

comments powered by Disqus
↑ Back to top | Pat Monahan Tabs for Her Eyes. Lyrics for acoustic guitar and electric guitar. Tablatures and chords are parodies/interpretations of the original songs. You may use it for private study, scholarship, research or language learning purposes only