>
 >
Farmers Trust

Farmers Trust Guitar Tabs

Pat Metheny - Farmers Trust chords, tabs, tablatures, lyrics

Guitar lessons | Add/correct | Request | Top 50 tabs Artists:  A B C D E F G H I J K L M N O P Q R S T U V W X Y Z 0-9

Farmers Trust Guitar Tabs – Pat Metheny

CD, Sheet music, Poster

Do you like Farmers Trust? Share with your friends now
Tabs
                                Farmer's Trust                                  


Pat Metheny (Group)
Nylon git. 



                          G                    Bm          G/B     
     Q    Q    E  E       E  E  E  E  E  E     E  E  E  E  E   E   
E||------------------||---------------------|---------------------|
B||------------------||---------------0-----|--3--------3---------|
G||------------------||*--------0--------0--|--4-----4-----4---0--|
D||------------0--0--||*--0--------0--------|-----4---------------|
A||------------------||------2--------------|--2------------------|
E||------------------||---3-----------------|---------------------|


  C#m    F#             Bm (add11)                   Am    D            
  E   E  E  E  E  E     E          E  E  E  E  E     E  E  E  E  E  E   
--0------2-----------|--0-------------------------|-----0--------------|
------0-----------2--|----------------3--------0--|--1-----3-----0--1--|
---------------3-----|----------------------------|--2--------2--------|
---------------------|-------------4--------4-----|--------0-----------|
--4---------4--------|--2----------------2--------|--0-----------------|
---------2-----------|----------------------------|--------------------|


  F/G     G9             C                    G                  
  E   S S E  E  E  E     E  E  E  E  E  E     E  E  E  E  E  E   
----------------------|--------------------|--------------------|
--1-------0-----------|--------1-----------|--------0-----------|
--2-----2-------2-----|--0--------------0--|--0--------------0--|
------3------------3--|-----2--------2-----|-----0--------0-----|
----------------------|--3--------3--------|--------------------|
--3----------3--------|--------------------|--3--------3--------|


  C                    Em          C/E       Ab    Bb           
  E  E  E  E  E  E     E  E  E  E  E   E     E  E  E  E  E  E   
--------------0-----|--3-----------0------|--8-----6-----------|
--------1--------1--|-----------0---------|-----------------6--|
--0--------0--------|--------0---------5--|-----8--------7-----|
-----2--------------|-----2---------------|--6-----------------|
--3-----------------|---------------------|-----------8--------|
--------------------|--0------------------|--------6-----------|


  Db/Eb     Eb    Db/Eb    Abmaj7                G7#5              
  E     S S E  E  Q        Q      E  E  E  E     Q    E  E  E  E   
------------------------|---------------------|-------------------|
--9---------8-----6-----|--4------------4--6--|--4----------4--3--|
----------6-------6-----|--5---------5--------|--4-------4--------|
--------6---------------|---------5-----------|-------3-----------|
--6------------6--------|---------------------|-------------------|
------------------------|--4------------------|--3----------------|


  Gbmaj7(13)                   Csus       C    C7       Fm9/Ab              
  E          E  E  E  E  E     E    S S   Q    E  E     Q      E  E  E  E   
----------------------------|------------------------|---------------------|
--4----------------4--1-----|--1---------------------|------------------6--|
----------------3--------3--|--0------0---0----L--3--|--5------------5-----|
-------------3--------------|-------3---2g2----L-----|------------5--------|
----------------------------|--3---------------------|---------6-----------|
--2-------------------------|------------------------|--4------------------|


  Cm9                   Gm/D                     Abmaj7    Ab7          
  E   E  E  E  E  E     E    E  E   E  E   E     E      E  E   E  Q     
------------------6--|--3-----------------11--|--8---------8------6----|
--3---------3--4-----|----------3/--8--9------|--8---------7-----------|
---------3-----------|-------3----------------|--8------8--8-----------|
------5--------------|--0---------------------|--6-------------6-------|
--3------------------|------------------------|------------------------|
---------------------|------------------------|------------------------|


   Csus C            Abmaj7       Bb/Ab             Csus           
   Q    Q.     E     Q      E  E  E     E     E  E  E    E  E  E   
---8----8---------|------------------------|--3----------3--------|
---8----8---------|---------------------6--|--------6----------6--|
--10----9------3--|--5------------5--------|-----5----------------|
------------------|------------5-----------|----------------------|
------------------|---------6--------------|--3-------------------|
---8----L---------|--4---------------------|----------------3-----|


  C        D                Csus              C              
  H        E  E   3x  E  E  E    E  Q         H.             
------------------||--3----------3--------|---8------------||
--5--------3------||--------6-------------|---8------------||
--5--------2-----*||-----5----------------|---9------------||
-----------0--0--*||----------------------|--10------------||
--3---------------||--3-------------------|--10------------||
------------------||----------------3/----|---8------------||




Duration Legend
---------------
W - whole
H - half
Q - quarter
E - 8th
S - 16th
T - 32nd
X - 64th
. - note dotted
|-n-|  - n-tuplets


Tablature Legend
----------------
L - tied note
x - dead note
g - grace note
(n) - ghost note
> - accentuded note
NH - natural harmonic
AH - artificial harmonic
TH - tapped harmonic
SH - semi harmonic
PH - pitch harmonic
h - hammer on
p - pull off
b - bend
br - bendRelease
pb - preBend
pbr - preBendRelease
brb - bendReleaseBend
\n/ - tremolo bar dip
\n - tremolo bar dive
-/n - tremolo bar Release up
/n\ - tremolo bar inverted dip
/n - tremolo bar return
-\n - tremolo bar Release down
S - shift slide
s - legato slide
/ -  slide into from below or out of upwards
\ -  slide into from above or out of downwards
~ - vibrato
W - wide vibrato
tr - trill
TP - tremolo picking
T - tapping
S - slap
P - pop
< - fade in
^ - brush up
v - brush down





Comments


Popular Pat Metheny tabs & chords
Follow Me Chords
A Map Of The World Intro Tabs
Bright Size Life Tabs
Cinema Paradiso Tabs
James Tabs
Last Train Home Tabs
Letter From Home Tabs
Medley Tabs
Praise Tabs
Have Yourself A Merry Little Christmas Ukulele


Song lyrics



↑ Back to top | Tablatures and chords are parodies/interpretations of the original songs. You may use it for private study, scholarship, research or language learning purposes only
© 2014 AZChords.com Contact us | Privacy policy | DMCA | Add/correct tabs | Request tabs | Top 50 tabs