» » »

Pat Mcgee Band, The Story Tabs (ver.1)

Artists:  A B C D E F G H I J K L M N O P Q R S T U V W X Y Z # 

The Story Tabs (ver.1)

Pat Mcgee Band Tabs
 Rating:
4/5 (4 votes)
The Story lessons Tabs too difficult? Try these video lessons and learn fast
1
                
Contributor: Daniel Schnall 

Intro
e|--------------------------------------------|
B|--------------------------------------------|
G|--------------------------------------------|
D|----2-2-----2-2-----2----2-2-----2-2------2-|
A|--------0/2-----0/2----------0/2-----0/2----|
E|--0--------------------0--------------------|

Verse
     E    A   F#m   B  
e|---0----0----0----2---|
B|---0----2----0----4---| 
G|---1----2----2----4---|
D|---2----2----4----4---| 
A|---2----0----4----2---| 
E|---0--------(2)-------|

A can also be played at 577600
B can also be played at 799800

Chorus
e|--0--0--0--0--0-------------0----2----|
B|--0--0--0--0--0-------------2----4----|
G|--9--8--6--4--2-------------2----4----|
D|--9--8--6--4--2--6--4--2----2----4----|
A|--7--6--4--2--0--6--4--2----0----2----|
E|-----------------4--2--0--------------|
            
Submit corrections

comments powered by Disqus
↑ Back to top | Pat Mcgee Band Tabs for The Story. Lyrics for acoustic guitar and electric guitar. 1 Tablatures and chords are parodies/interpretations of the original songs. You may use it for private study, scholarship, research or language learning purposes only