» » »

Shine Tabs (ver.1)

Artists:  A B C D E F G H I J K L M N O P Q R S T U V W X Y Z # 

Shine Tabs (ver.1)

Pat Mcgee Band
Rating:
0/5 (0 votes)

Hard to play? Try these video lessons and learn fast.
                
Contributor: Daniel Schnall 

Capo: 2 (all chords relative to capo)

    E   Dsus2  
e |-0-| |-0-|
B |-0-| |-3-|
G |-1-| |-2-|
D |-2-| |-0-|
A |-2-| |---|
E |-0-| |---|


Verse/Chorus:
 
|-----0--------0----0----0---|
|-----2--------3----3----3---|
|-----2--------2----2----2---|
|-----2-----0----------0-0---|
|---0-----2-------4----------|
|----------------------------|
 
 
Pre-chorus:

E                Dsus2     
    You chose to shine
 
e|-----0----2--0--------|
B|----------------3-----|
G|--2-----2----------2--|
D|----------------------|
A|----------------------|
E|----------------------|
            
Hard to play? Try these video lessons and learn fast. | Correct




comments powered by Disqus
↑ Back to top | Tablatures and chords are parodies/interpretations of the original songs. You may use it for private study, scholarship, research or language learning purposes only