>
 >
Set Me Free

Set Me Free Guitar Tabs

Pat Mcgee Band - Set Me Free chords, tabs, tablatures, lyrics

Guitar lessons | Add/correct | Request | Top 50 tabs Artists:  A B C D E F G H I J K L M N O P Q R S T U V W X Y Z 0-9

Set Me Free Guitar Tabs – Pat Mcgee Band

CD, Sheet music, Poster

Do you like Set Me Free? Share with your friends now
Tabs

Contributor: Daniel Schnall

   Cadd9 Dsus2  G/B    Em    G     F     C
e  |-0-| |-0-| |-0-| |-0-| |-3-| |-3-| |-3-|
B  |-3-| |-3-| |-3-| |-0-| |-3-| |-1-| |-1-|
G  |-0-| |-2-| |-0-| |-0-| |-0-| |-2-| |-0-|
D  |-2-| |-0-| |-x-| |-2-| |-0-| |-3-| |-2-|
A  |-3-| |---| |-2-| |-2-| |-2-| |---| |-3-|
E  |---| |---| |---| |-0-| |-3-| |---| |---|


Intro
e|--3-3-3-3-3-3-3-3-3-3-|
B|--3-3-3-3-3-3-3-3-3-3-|
G|--0-0-0-0-0-0-0-0-0-0-|
D|--0-3-2-X-X-X-X-X-X-0-|
A|--X-----2-3-2-3-2-3---|
E|--3-------------------|

   Cadd9  Dsus2   G/B   Cadd9
e|---0------0------0------0---|
B|---3------3------3------3---|
G|---0------2------0------0---|
D|---2------0------x------2---|
A|---3-------------2------3---|
E|----------------------------|


Verse

Cadd9  Dsus2  G/B  Cadd9
Cadd9  Dsus2  Em
Cadd9  Dsus2  G/B  Cadd9
Cadd9  Dsus2  G


Chorus
     Dsus2  Cadd9   G           F     C
e|-----0------0-----3-----------3-----3---|
B|-----3------3-----3-----------1-----1---|
G|-----2------0-----0---(x3)----2-----0---|
D|-----0------2-----0-----------3-----2---|
A|------------3-----2-----------------3---|
E|------------------3---------------------|


Bridge
     Em   F    C    G      Em   F    C    F    C
e|---0----3----3----3------0----3----3----3----3---|
B|---0----1----1----3------0----1----1----1----1---|
G|---0----2----0----0------0----2----0----2----0---|
D|---2----3----2----0------2----3----2----3----2---|
A|---2---------3----2------2---------3---------3---|
E|---0--------------3------0-----------------------|
                                               ^rings as Interlude begins

Interlude
e|-------------------------------------|
B|-------------------------------------|
G|-------0-----2---------0-----0-------|
D|-----2-----0---------0---------2-----|
A|---3-----------0---2-------3-----3---|
E|-------------------------------------|

e|------------------------------------------|
B|------------------------------------------|
G|-------0-----2-----------------------9~---|
D|-----2-----0-------------------10h12------|
A|---3-----------0---------10h12------------|
E|-------------------10h12------------------|
You can just mess around with the Verse chords Cadd9  Dsus2  G/B  Cadd9 then Cadd9 Dsus2 
the 10h12 part. This is just a general idea of what can be played.





Comments


Popular Pat Mcgee Band tabs & chords
Annabel Chords
At It Again Chords
Beautiful Ways Chords
Don't Give Up 1 Chords
Identity Chords
Must Have Been Love Chords
Havent Seen For Awhile Tabs
Rebecca (Intro) Tabs
Come Back Home Ukulele
Wonderful Ukulele


Song lyrics



↑ Back to top | Tablatures and chords are parodies/interpretations of the original songs. You may use it for private study, scholarship, research or language learning purposes only
© 2014 AZChords.com Contact us | Privacy policy | DMCA | Add/correct tabs | Request tabs | Top 50 tabs