» » »

Pat Mcgee Band, Nobody Knows Chords (ver.1)

Artists:  A B C D E F G H I J K L M N O P Q R S T U V W X Y Z # 

Nobody Knows Chords (ver.1)

Pat Mcgee Band Tabs
 Rating:
4/5 (4 votes)
Nobody Knows lessons Tabs too difficult? Try these video lessons and learn fast
                
Contributor: Daniel Schnall


Intro / Verse
                 F#m7  E   C#m   B
e|----------------9----7----4----2--|
B|----------------10---9----5----4--|
G|----------------9----9----6----4--|
D|----------6-9---11---9----6----4--|
A|------7-9-------9----7----4----2--|
E|--7h9-----------------------------|


Chorus
     E    B    A     C#m  B   A   B   B
e|---7----0----0------4---2---0---2---2---|
B|---9----0----0------5---4---2---4---4---| 
G|---9----8----6------6---4---2---4---4---|
D|---9----9----7------6---4---2---4---4---| 
A|---7----9----7------4---2---0---2---2---| 
E|--------7----5--------------------------|


Bridge
    C#m   B    A    B
e|---4----0----0----0---|
B|---5----0----0----0---| 
G|---6----8----6----8---|
D|---6----9----7----9---| 
A|---4----9----7----9---| 
E|--------7----5----7---|
            
Submit corrections

comments powered by Disqus
↑ Back to top | Pat Mcgee Band Chords for Nobody Knows. Lyrics for acoustic guitar and electric guitar. Tablatures and chords are parodies/interpretations of the original songs. You may use it for private study, scholarship, research or language learning purposes only