» » »

Pat Mcgee Band, Minute Chords (ver.1)

Artists:  A B C D E F G H I J K L M N O P Q R S T U V W X Y Z # 

Minute Chords (ver.1)

Pat Mcgee Band Tabs
Rating:
0/5 (0 votes)
Hard to play? Try these video lessons and learn fast.
                
Contributor: Daniel Schnall

Capo: 1 (all chords relative to capo)

Intro / Verse
      G    C
e|----3---(0)---|
B|---(3)---1----|
G|----0----0----|
D|----0----2----|
A|----2----3----|
E|----3---------|

Pre Chorus
      D    C
e|----2----0----|
B|----3----1----|
G|----2----0----|
D|----0----2----|
A|---------3----|
E|--------------|

Chorus
      G     D    Em     C   
e|----3-----2-----0-----0----|
B|----3-----3-----1-----1----|
G|----0-----2-----2-----0----|
D|----0-----0-----2-----2----|
A|----2-----------0-----3----|
E|----3----------------------|

      G     D    Em         C   
e|----3-----2-----0----0----0----|
B|----3-----3-----1----1----1----|
G|----0-----2-----2----2----0----|
D|----0-----0-----2----0----2----|
A|----2-----------0----2----3----|
E|----3--------------------------|


Bridge
      Em    C     G     D   
e|----0-----0-----3-----2----|
B|----1-----1-----3-----3----|
G|----2-----0-----0-----2----|
D|----2-----2-----0-----0----|
A|----0-----3-----2----------|
E|----------------3----------|
            

comments powered by Disqus
↑ Back to top | Pat Mcgee Band Chords for Minute. Lyrics for acoustic guitar and electric guitar. Tablatures and chords are parodies/interpretations of the original songs. You may use it for private study, scholarship, research or language learning purposes only