» » »

Pat Green, You Gotta Know Tabs (ver.1)

Artists:  A B C D E F G H I J K L M N O P Q R S T U V W X Y Z # 

You Gotta Know Tabs (ver.1)

Pat Green Tabs
Rating:
0/5 (0 votes)
Hard to play? Try these video lessons and learn fast.
                 


"You Gotta Know'


Capo:  3rd Fret on CD   (5th Fret  at  Billy Bob's 4-10-99)

Intro:  G---Cadd9  (played 8X  at  Billy Bob's 4-10-99)

Pat strums the two chords, as Brendon picks them...

e---------3---------------3---------
B-----------3---------------3-------
G-------0-----0---------0-----0-----
D-----0---------0-----0---------0---
A-----------------------------------
E---3---------------3---------------

e---------3---------------3---------
B-----------3---------------3-------
G-------0-----0---------0-----0-----
D-----2---------2-----2---------2---
A---3---------------3---------------
E-----------------------------------     REPEAT...

 
            

comments powered by Disqus
↑ Back to top | Pat Green Tabs for You Gotta Know. Lyrics for acoustic guitar and electric guitar. Tablatures and chords are parodies/interpretations of the original songs. You may use it for private study, scholarship, research or language learning purposes only