» » »

Texas On My Mind Tabs (ver.1)

Artists:  A B C D E F G H I J K L M N O P Q R S T U V W X Y Z # 

Texas On My Mind Tabs (ver.1)

Pat Green
Rating:
0/5 (0 votes)

Hard to play? Try these video lessons and learn fast.
                Pat Green   Texas on My Mind

Solo

e----------------------------------------------------------------------
B----------------------------------------------------------------------
G--------------------------------------------/7-9-9-7---7-7--7---------
D---------------------12-12-12-12--12-12-12-----------9----------------
A-----5-7-5-/10~~-----10-10-10-10--10-10-10----------------------------
E--/7------------------------------------------------------------------

e----------------------------------------------------------b----------r----
B-/10-----------------------------------------------8-10-10(12)(12)(12)10--
G-----12-----------------------------------------/9------------------------
D--------12-12-12-10-10-10-9--10-10-10-9--9-9-9----------------------------
A--------------------------------------------------------------------------
E--------------------------------------------------------------------------

e----------------------------------------------------------------------
B---8-8----------------------------------------------------------------
G-9-7-7-------------------------------------5---7---5\4-5\4-0----------
D---------5-5-5-5-5-5-5-5--5-5-5-4-4-4-4--5---5---------------0--------
A----------------------------------------------------------------------
E----------------------------------------------------------------------

e----------------------------------------------------------------------
B--------------------8----8---8----------------------------------------
G--------------------7(9)-7-4-7-4-2-0------bh----r---------------------
D----5-5----5--5------bh--------------2-5-7(9)-(9)7p5-7-5----5-5-5-----
A-/7-----/7------7-5---------------------------------------------5-----
E----------------------------------------------------------------------

e----------------------------------------------------------------------
B----------------------------------------------------------------------
G----------------------------------------------------------------------
D----------------------------------------------------------------------
A-/7-5---5-------------------------------------------------------------
E------7---7-5-3-5-3---------------------------------------------------
            
Hard to play? Try these video lessons and learn fast. | Correct




comments powered by Disqus
↑ Back to top | Tablatures and chords are parodies/interpretations of the original songs. You may use it for private study, scholarship, research or language learning purposes only