» » »

Patent Pending, This Can't Happen Again Tabs (ver.1)

Artists:  A B C D E F G H I J K L M N O P Q R S T U V W X Y Z # 

This Can't Happen Again Tabs (ver.1)

Patent Pending Tabs
 Rating:
3.7/5 (6 votes)
This Can't Happen Again lessons Tabs too difficult? Try these video lessons and learn fast
                Patent Pending = Good Band
This Can't Happen Again = Good Song
Good Band + Good Song + Good Tab = Happy You! :] enjoy

[Intro]

|----------------------------------------------------|
|----------------------------------------------------|
|-----------5-5-5-5------------------5-5-5-5---------|
|-(3)(3)(3)-5-5-5-5-5-5-45-(3)(3)(3)-5-5-5-5-5-5-45--|
|-(3)(3)(3)-3-3-3-3-5-5-55-(3)(3)(3)-3-3-3-3-5-5-55--|
|-(3)(3)(3)---------3-3-33-(3)(3)(3)---------3-3-33--|

|-------------------------------------------|
|-------------------------------------------|
|------5-5-5-5--------------5-5-5-5---------|
|-333--5-5-5-5-5-5-45--333--5-5-5-5-5-5-45--|
|-333--3-3-3-3-5-5-55--333--3-3-3-3-5-5-55--|
|-333----------3-3-33--333----------3-3-33--|


|----------------------------------------------------------|
|----------------------------------------------------------|
|------10-10-10-10-----------------10-10-10-10-------------|
|-333--10-10-10-10-10-10--910--333-10-10-10-10-10-10--910--|
|-333---8--8--8--8-10-10-1010--333--8--8--8--8-10-10-1010--|
|-111---------------8--8--8-8--111--------------8--8--8-8--|

|-------------------------------------------------|
|-------------------------------------------------|
|-------5-5-5-5----------------5-5-5-5------------|
|-5--5--5-5-5-5-5-5-45---5--5--5-5-5-5-5-5-45-----|
|-5--5--3-3-3-3-5-5-55---5--5--3-3-3-3-5-5-55-----|
|-3--3----------3-3-33---3--3----------3-3-33-----|

|------------------|
|------------------|
|------------------|
|------------------|
|-xx-8--8-xx-5--5--|
|-xx-8--8-xx-3--3--|

[Verse]

|-------------------------------------|
|-------------------------------------|
|-------------------------------------|
|-------------------------------------|   x2
|-xx-3--3-xx-7--7-xx-8--8-xx-10-xx-5--|
|-xx-3--3-xx-7--7-xx-8--8-xx--8-xx-5--|

[Pre-Chorus1]

|-------------------------------------|
|-------------------------------------|
|-------------------------------------|
|-------------------------------------|   x2
|-xx-3-xx-3-xx-7-xx-7-xx-8-xx-8-10----|
|-xx-3-xx-3-xx-7-xx-7-xx-8-xx-8--8----|

[Pre-Chorus2]

|-------------------------------------|
|-------------------------------------|
|-------------------------5-5-5-5-----|
|-7-7-7-7-5-5-5-5-5-5-5-5-5-5-5-5-----|   x2
|-7-7-7-7-5-5-5-5-5-5-5-5-3-3-3-3-----|
|-5-5-5-5-5-5-5-5-3-3-3-3-------------|

[Chorus]

|-------------------------------------|
|-------------------------------------|
|-------------------------5-5-5-5-----|
|-7-7-7-7-5-5-5-5-5-5-5-5-5-5-5-5-----|
|-7-7-7-7-5-5-5-5-5-5-5-5-3-3-3-3-----|
|-5-5-5-5-5-5-5-5-3-3-3-3-------------|

|------------------------------|
|------------------------------|
|-------------------------5----|
|-7-7-7-7-5-5-5-5-5-5-5-5-5----|
|-7-7-7-7-5-5-5-5-5-5-5-5-3----|
|-5-5-5-5-5-5-5-5-3-3-3-3------|

[Riff]

|-------------------------------------------|
|-------------------------------------------|
|------5-5-5-5--------------5-5-5-5---------|
|-333--5-5-5-5-5-5-45--333--5-5-5-5-5-5-45--|   x4
|-333--3-3-3-3-5-5-55--333--3-3-3-3-5-5-55--|
|-333----------3-3-33--333----------3-3-33--|

[Verse]

|-------------------------------------|
|-------------------------------------|
|-------------------------------------|
|-------------------------------------|   x2
|-xx-3--3-xx-7--7-xx-8--8-xx-10-xx-5--|
|-xx-3--3-xx-7--7-xx-8--8-xx--8-xx-5--|

[Pre-Chorus1]

|-------------------------------------|
|-------------------------------------|
|-------------------------------------|
|-------------------------------------|   x2
|-xx-3-xx-3-xx-7-xx-7-xx-8-xx-8-10----|
|-xx-3-xx-3-xx-7-xx-7-xx-8-xx-8--8----|

[Pre-Chorus2]

|-------------------------------------|
|-------------------------------------|
|-------------------------5-5-5-5-----|
|-7-7-7-7-5-5-5-5-5-5-5-5-5-5-5-5-----|   x2
|-7-7-7-7-5-5-5-5-5-5-5-5-3-3-3-3-----|
|-5-5-5-5-5-5-5-5-3-3-3-3-------------|

[Chorus]

|-------------------------------------|
|-------------------------------------|
|-------------------------5-5-5-5-----|
|-7-7-7-7-5-5-5-5-5-5-5-5-5-5-5-5-----|
|-7-7-7-7-5-5-5-5-5-5-5-5-3-3-3-3-----|
|-5-5-5-5-5-5-5-5-3-3-3-3-------------|

|------------------------------|
|------------------------------|
|-------------------------5----|
|-7-7-7-7-5-5-5-5-5-5-5-5-5----|
|-7-7-7-7-5-5-5-5-5-5-5-5-3----|
|-5-5-5-5-5-5-5-5-3-3-3-3------|

[Riff]

|-------------------------------------------|
|-------------------------------------------|
|------5-5-5-5--------------5-5-5-5---------|
|-333--5-5-5-5-5-5-45--333--5-5-5-5-5-5-45--|   x4
|-333--3-3-3-3-5-5-55--333--3-3-3-3-5-5-55--|
|-333----------3-3-33--333----------3-3-33--|

[Bridge]

|---------------------|
|---------------------|
|----------------5----|
|-7----5----5----5----|
|-7----5----5----3----|
|-5----5----3---------|

[Bridge o palm mutes]

|------------------|
|------------------|
|------------------|
|-xxxxxxxxxxxxxxxx-|   x3
|-xxxxxxxxxxxxxxxx-|
|-xxxxxxxxxxxxxxxx-|

|------------------|
|------------------|
|---------5--------|
|-xxxxxxxx5--------|
|-xxxxxxxx3--------|
|-xxxxxxxx---------|

[Pre-Chorus2 / Chorus]

|-------------------------------------|
|-------------------------------------|
|-------------------------5-5-5-5-----|
|-7-7-7-7-5-5-5-5-5-5-5-5-5-5-5-5-----|   x2
|-7-7-7-7-5-5-5-5-5-5-5-5-3-3-3-3-----|
|-5-5-5-5-5-5-5-5-3-3-3-3-------------|

[Chorus]

|-------------------------------------|
|-------------------------------------|
|-------------------------5-5-5-5-----|
|-7-7-7-7-5-5-5-5-5-5-5-5-5-5-5-5-----|
|-7-7-7-7-5-5-5-5-5-5-5-5-3-3-3-3-----|
|-5-5-5-5-5-5-5-5-3-3-3-3-------------|

|------------------------------|
|------------------------------|
|-------------------------5----|
|-7-7-7-7-5-5-5-5-5-5-5-5-5----|
|-7-7-7-7-5-5-5-5-5-5-5-5-3----|
|-5-5-5-5-5-5-5-5-3-3-3-3------|

Lyrics:

[intro]
[Verse]

the distance between us has gotten so cold
what's best left unsaid was once said in my head
and the words that you said and then...i believe again

[Pre-Chorus1]
ADD and OCD and every letter in between and every single step i take
I'm dying
hoping you could find the time to help me
get my life in mind with every single move you make
i can breathe again

[Pre-Chorus2]
standing out your window screaming, hoping you can hear my voice tonight
scream until my lungs collapse so i can finally know what it's all about

[Chorus]
this can't happen again, sorry but i'm tired of waiting
this can't happen again, sorry but i'm tired of waiting

[Riff]

[Verse]
how desperate the truth is you could never know
turns in the bed you slept, secrets and lies you kept, you'd turn your back except
you believe again

[Pre-Chorus1]
ADD and OCD and every letter in between and every single step i take
I'm dying
hoping you could find the time to help me
get my life in mind with every single move you make
i can breathe again

[Pre-Chorus2]
standing out your window screaming, hoping you can hear my voice tonight
scream until my lungs collapse so i can finally know what it's all about

[Chorus]
this can't happen again, sorry but i'm tired of waiting
this can't happen again, sorry but i'm tired of waiting

[Riff]
[Bridge]
[Muted Bridge]

[Pre-Chorus2 / Chorus]
standing out your window screaming, hoping you can hear my voice tonight
(this can't happen again, sorry but i'm tired of waiting)
scream until my lungs collapse so i can finally know what it's all about
(this can't happen again, sorry but i'm tired of waiting)

[Chorus]
this can't happen again, sorry but i'm tired of waiting
this can't happen again, sorry but i'm tired of waiting


Thanx... i hope you enjoyd it...
BTW im not sure if there is two pre-choruses but instead of saying the "standing out 
window" part was part of the chorus it was easier to say it wasn't because of the little 
where it sings that part and "this can't happen again" part at the same time!
            
Submit corrections

comments powered by Disqus
↑ Back to top | Patent Pending Tabs for This Can't Happen Again. Lyrics for acoustic guitar and electric guitar. Tablatures and chords are parodies/interpretations of the original songs. You may use it for private study, scholarship, research or language learning purposes only