» » »

Los Angeles Tabs (ver.1)

Artists:  A B C D E F G H I J K L M N O P Q R S T U V W X Y Z # 

Los Angeles Tabs (ver.1)

Patent Pending
Rating:
5/5 (3 votes)

Hard to play? Try these video lessons and learn fast.
                PATENT PENDING -- Los Angeles

* = play 5-6x
# = play palm muted


"She said Los Angeles..."
e---------------------------|
B---------------------------|
G-7-----------------7***----|
D-7---5*--9*-7*-5**-7----5*-|
A-5---5---9--7--5---5----5--|
E-----3---7--5--3--------3--|

**VERSE**
"getting better..."
e------------------|(2x)
B------------------|
G-------------7----|
D-9---7---5---7-7*-|
A-9---7---5---5-7--|
E-7---5---3-----5--|
"I'm lost..."
e---------|
B---------|
G---------|
D-5**-7**-|
A-5---7---|
E-3---5---|
"You gotta be..."
e----------------|(3x)
B----------------|
G----------77----|
D-9*-7*-5*-77-77-|
A-9--7--5--55-77-|
E-7--5--3-----55-|
"lost control..."
e---------------|
B---------------|
G-------------7-|
D-9*-7*-5#-7#-7-|
A-9--7--5--7--5-|
E-7--5--3--5----|
**

"I said Los Angeles..."
e------------------------------|
B------------------------------|
G-7***-----------------7***----|
D-7----7-5*--9*-7*-5**-7----5*-|
A-5----7-5---9--7--5---5----5--|
E------5-3---7--5--3--------3--|

repeat verse

**BRIDGE**
e----2----------------------------|(4x)
B----3-------3-------7------------|
G-7--2-------4-------7------------|
D-7--0--4/5--5--7/9--9--7\555-777-|
A-5-----4/5--5--7/9--9--7\555-777-|
E-------2/3-----5/7-----5\333-555-|
**

"She said Los Angeles has never been so cold..."
e-(         p.m.        )--------------------------------------------------|
B--------------------------------------------------------------------------|
G-77777----------------------------7*----------------9-999--7*-------------|
D-77777-7-55555-7-99999-7-555-777--7--7-5*-/9*-7-777-9-999--7--7-5*-/9*-7*-|
A-55555-7-55555-7-99999-7-555-777--5--7-5--/9--7-777-7-777--5--7-5--/9--7--|
E-------5-33333-5-77777-5-333-555-----5-3--/7--5-555-----------5-3--/7--5--|
"getting better, getting better..."
e----------------------------------|
B---------------------------(fill)-|
G----------7#----------7-----/11~--|
D-5#-7#-9#-7--5#-7#-9#-7-------x---|
A-5--7--9--5--5--7--9--5-----/-9~--|
E-3--5--7-----3--5--7--------------|
"I'm stalling..."
e--------------------|
B--------------------|
G--------------------|
D-5*-7*-9*-7*-5*-7**-|
A-5--7--9--7--5--7---|
E-3--5--7--5--3--5---|

repeat bridge

"Ohh, L.A..."
e---------------------------|(2x)
B---------------------------|
G-7777----------------------|
D-7777--5555--9999--555-777-|
A-5555--5555--9999--555-777-|
E-------3333--7777--333-555-|
"I'm stalling..."
e------------------------------------|
B------------------------------------|
G-7*----------------7*-----------999-|
D-7--5*-9*-555-777--7--5*-9*-777-999-|
A-5--5--9--555-777--5--5--9--777-777-|
E----3--7--333-555-----3--7--555-----|

repeat bridge (5x)

end on
e---|
B---|
G-7-|
D-7-|
A-5-|
E---|

questions/comments send to:
            
Hard to play? Try these video lessons and learn fast. | Correct




comments powered by Disqus
↑ Back to top | Tablatures and chords are parodies/interpretations of the original songs. You may use it for private study, scholarship, research or language learning purposes only