» » »

Patent Pending, Douchebag Bass tabs (ver.1)

Artists:  A B C D E F G H I J K L M N O P Q R S T U V W X Y Z # 

Douchebag Bass tabs (ver.1)

Patent Pending Tabs
Rating:
0/5 (0 votes)
Douchebag lessons Tabs too difficult? Try these video lessons and learn fast
                
The bass doesn't play during the 1st verse, it only comes in during the first pre-chorus.

Pre-Chorus:
G||-------------------------------------------------|
D||-------------------------------------------------|
A||--5--5-----7----7-----4-------4-----5--5----5----|
E||-------------------------------------------------|

|----------------------------------------------------|
|------------------------------------4-----2-4-2--0--|
|--5--5-----7----7-----4-------4---------------------|
|----------------------------------------------------|

|---------------------------------------------------|
|------------------------------------4--------------|
|-----5--6--7----7-----4-------4-----------7-----5--|
|---------------------------------------------------|

|-----------------------------------------------|
|-----------------------------------------------|
|-----5--5--5--5--5--5--5-----------------------|
|----------------------------0------------------|


Chorus 1:                                         _                         
|-----------------------------------------------|  |
|-----------------------------------------------|  |
|--0-------5--5---------------------------------|  |
|----------------------------0-----2--2----2----|  |
                                                   | X2
|-----------------------------------------------|  |
|-----------------------------------------------|  |
|--0-------5--5---------------------------------|  |
|----------------------------0-----2--2----0----|  |
                                                  _|

Verse 2:
|----------------------------------------|
|----------------------------------------|
|--0--------5----------7-----------------|  X4
|-------------------------------0--------|

Pre-Chorus:
|-------------------------------------------------|
|-------------------------------------------------|
|--5--5-----7----7-----4-------4-----5--5----5----|
|-------------------------------------------------|

|----------------------------------------------------|
|------------------------------------4-----2-4-2--0--|
|--5--5-----7----7-----4-------4---------------------|
|----------------------------------------------------|

|---------------------------------------------------|
|------------------------------------4--------------|
|-----5--6--7----7-----4-------4-----------7-----5--|
|---------------------------------------------------|

|-----------------------------------------------|
|-----------------------------------------------|
|-----5--5--5--5--5--5--5-----------------------|
|----------------------------0------------------|

Chorus 2:
|-----------------------------------------------|
|-----------------------------------------------|
|--0-------5--5---------------------------------|
|----------------------------0-----2--2----2----|

|-----------------------------------------------|
|-----------------------------------------------|
|--0-------5--5---------------------------------|
|----------------------------0-----2--2----0----|


Breakdown:
|--------------------------------------------------|
|--------------------------------------------------|
|--------------------------------------------------|
|--5--5--5--5--5--5--5--5--5--5--5--5--5--5--5--5--|

|--------------------------------------------------|
|--------------------------------------------------|
|--------------------------------------------------|
|--2--2--2--2--2--2--2--2--2--2--2--2--2--2--2--2--|


|--------------------------------------------------|
|--------------------------------------------------|
|--5--5--5--5--5--5--5--5--5--5--5--5--5--5--5--5--| X2
|--------------------------------------------------|


|--------------------------------------------------|
|--------------------------------------------------|
|--------------------------------------------------|
|--5--5--5--5--5--5--5--5--5--5--5--5--5--5--5--5--|

|--------------------------------------------------|
|--------------------------------------------------|
|--------------------------------------------------|
|--2--2--2--2--2--2--2--2--2--2--2--2--2--2--2--2--|


|--------------------------------------------------|
|--------------------------------------------------|
|--5--5--5--5--5--5--5--5--5--5--5--5--5--5--5--5--|
|--------------------------------------------------|


|--------------------------------------------------|
|--------------------------------------------------|
|--5--Hold~----------------------------------------|
|--------------------------------------------------|


Pre-Chorus 2:

|---------------------------------------------------|
|------------------------------------4--------------|
|-----5--6--7----7-----4-------4-----------7-----5--|
|---------------------------------------------------|

|----------------------------------------------------|
|----------------------------------------------------|
|-----5--5--5--5--5--5--5----------------------------|
|----------------------------0--0--0--0--0--0--0--0--|

Chorus 3:
|-----------------------------------------------|
|-----------------------------------------------|
|--0-------5--5---------------------------------|
|----------------------------0-----2--2----2----|

|-----------------------------------------------|
|-----------------------------------------------|
|--0-------5--5---------------------------------|
|----------------------------0-----2--2----0----|

|-----------------------------------------------|
|-----------------------------------------------|
|--0-------5--5---------------------------------|
|----------------------------0-----2--2----2----|

|-----------------------------------------------|
|-----------------------------------------------|
|--0--------------------------------------------|
|----------4--4--------------0-----2--2--Hold~--|

Outro:
|--------------------------------------------------|
|--------------------------------------------------|
|--------------------------5--5--5--5--5--5--5--5--|
|--5--5--5--5--2--2--2--2--------------------------|

|---------------------------------------------------|
|---------------------------------------------------|
|---------------------------5--5--7--7--8--8--------|
|---7--7--7--7--4--4--4--4--------------------3--3--|


|--------------------------------------------------|
|--------------------------------------------------|
|--------------------------5--5--5--5--5--5--5--5--|
|--5--5--5--5--2--2--2--2--------------------------|

|-------------------------------------------------------------|
|-------------------------------------------------------------|
|--------------------------5--5--7--7--8--8--10-10-12--Hold~--|
|--7--7--7--7--4--4--4--4-------------------------------------|


Thanks!
            

comments powered by Disqus
↑ Back to top | Patent Pending Bass for Douchebag. Lyrics for acoustic guitar and electric guitar. Tablatures and chords are parodies/interpretations of the original songs. You may use it for private study, scholarship, research or language learning purposes only