» » »

Patent Pending, Cheer Up Emo Kid Tabs (ver.1)

Artists:  A B C D E F G H I J K L M N O P Q R S T U V W X Y Z # 

Cheer Up Emo Kid Tabs (ver.1)

Patent Pending Tabs
 Rating:
4.3/5 (6 votes)
Cheer Up Emo Kid lessons Tabs too difficult? Try these video lessons and learn fast
                -------------------------------------------------------------------------------

Tuning: Standard

First tab, so sorry if theres any mistakes

Intro:
(Guitar II)
e|-----------------------------------------------------------------------------------------|
B|-----------------------------------------------------------------------------------------|
G|-------------11h12-12-------------------------------------11h12-12-----------------------|
D|-11h12-12-0-----------0----------------------11h12-12--0-----------0---------------------|
A|-------------------------9h10-10-0-11h12-12---------------------------9h10-10-0-11h12-12-|
E|-----------------------------------------------------------------------------------------|

(Guitar II)
e|-----------------------------------------------------------------------------------------|
B|-----------------------------------------------------------------------------------------|
G|--------------------------------------------6/7------------------------------------------|
D|--------------------------------------------6/7------------------------------------------|
A|--------------------------------------------4/5------------------------------------------|
E|-----------------------------------------------------------------------------------------|


(Guitar I) X2
e|-----------------------------------------------------------------------------------------|
B|-----------------------------------------------------------------------------------------|
G|-------------11h12-12-------------------------------------11h12-12-----------------------|
D|-11h12-12-0-----------0----------------------11h12-12--0-----------0---------------------|
A|-------------------------9h10-10-0-11h12-12---------------------------9h10-10-0-11h12-12-|
E|-----------------------------------------------------------------------------------------|

(Guitar II) X2
e|------------------------------------------------------------------------------------------|
B|------------------------------------------------------------------------------------------|
G|--7----------12-------------------------------7------------12-----------------------------|
D|--7----------12----------5----------7---------7------------12---------5----------7--------|
A|--5----------10----------5----------7---------5------------10---------5----------7--------|
E|-------------------------3----------5---------------------------------3----------5--------|


(Guitar I & II)
e|-------------------------------------------------------------------------|
B|-------------------------------------------------------------------------|
G|--7-letring--6/7-letring---6/7-letring----9\7---7---6/7-letring----------|
D|--7----------6/7-----------6/7------------9\7---7---6/7------------------|
A|--5----------4/5-----------4/5------------7\5---5---4/5------------------|
E|-------------------------------------------------------------------------|
                  

  Verse:         "I got home late..."
e|-----------------------------------------------------------------------|
B|-----------------------------------------------------------------------|
G|-Bass-and-Drums-77-7/1212-12---------------77-7/1212-12----------------|
D|----------------77-7/1010-10---55-5/77-7---77-7/1212-12-----55-5/77-7--|
A|----------------55-5/1010-10---55-5/77-7---55-5/1010-10-----55-5/77-7--|
E|-------------------------------33-3/55-5--------------------33-3/55-5--|
PM                .. . . .       ..   ..     ..   . .         ..   ..

e|-----------------------------------------------------------|
B|-----------------------------------------------------------|
G|--77-7/1212-12----------------77-7/1212-12-----------------|
D|--77-7/1010-10---55-5--77-7---77-7/1212-12-----55-5--77-7--|
A|--55-5/1010-10---55-5--77-7---55-5/1010-10-----55-5--77-7--|
E|-----------------33-3--55-5--------------------33-3--55-5--|
PM  .. . . .       ..    ..     ..   . .         ..    ..

Prechorus: "Im gonna cry..." (X5)
e|--------------------------|
B|--------------------------|
G|--7x--1212----------------|
D|--7x--1212--55x--77x------|
A|--5x--1010--55x--77x------|
E|------------33x--55x------|

e|--------------------------|
B|--------------------------|
G|--7x--1212----------------|
D|--7x--1212--55x-----------|
A|--5x--1010--55x-----------|
E|------------33x-----------|


Chorus:  "Cheer up emo kid..." X4
e|-------------------------------|
B|-------------------------------|
G|---7x---------------1212x------|
D|---7x---55x---77x---1212x------|
A|---5x---55x---77x---1010x------|
E|--------33x---55x--------------|


Postchorus X4
e|-----------------------------------------------------------|
B|-----------------------------------------------------------|
G|--77-7/1212-12----------------77-7/1212-12-----------------|
D|--77-7/1010-10---55-5--77-7---77-7/1212-12-----55-5--77-7--|
A|--55-5/1010-10---55-5--77-7---55-5/1010-10-----55-5--77-7--|
E|-----------------33-3--55-5--------------------33-3--55-5--|
PM  .. . . .       ..    ..     ..   . .         ..    ..


Verse II "I like to listen..."
e|----------------------------------------------------------------|
B|----------------------------------------------------------------|
G|----7-letring---6/7-letring-6/7-letring-77777777----------------|
D|----7-----------6/7---------6/7---------77777777----------------|
A|----5-----------4/5---------4/5---------55555555----------------|
E|----------------------------------------------------------------|


Prechorus: "Im gonna cry..." (X5)
e|--------------------------|
B|--------------------------|
G|--7x--1212----------------|
D|--7x--1212--55x--77x------|
A|--5x--1010--55x--77x------|
E|------------33x--55x------|

e|--------------------------|
B|--------------------------|
G|--7x--1212----------------|
D|--7x--1212--55x-----------|
A|--5x--1010--55x-----------|
E|------------33x-----------|


Chorus:  "Cheer up emo kid..." X4
e|-------------------------------|
B|-------------------------------|
G|---7x---------------1212x------|
D|---7x---55x---77x---1212x------|
A|---5x---55x---77x---1010x------|
E|--------33x---55x--------------|

Bridge


Prechorus: "Im gonna cry..." (X5)
e|--------------------------|
B|--------------------------|
G|--7x--1212----------------|
D|--7x--1212--55x--77x------|
A|--5x--1010--55x--77x------|
E|------------33x--55x------|

e|--------------------------|
B|--------------------------|
G|--7x--1212----------------|
D|--7x--1212--55x-----------|
A|--5x--1010--55x-----------|
E|------------33x-----------|


Bridge:
e|----------------|
B|----------------|
G|---7-letring----|
D|---7------------|
A|---5------------|
E|----------------|


Bass and Drums
Than: "Nobody likes me..." X4
e|------------------------------|
B|------------------------------|
G|------------------------------|
D|------------------------------|
A|---5555/10101010--------------|
E|---------------------3333/5555|

e|-------------------------------------------------------|
B|-------------------------------------------------------|
G|---7--12----------------7--12--------------------------|
D|---7--12--5--7777777----7--12--5--77777777-------------|
A|---5--10--5--7777777----5--10--5--77777777-------------|
E|----------3--5555555-----------3--55555555-------------|

Outro: X4
e|--------------------------|
B|--------------------------|
G|--7x--1212----------------|
D|--7x--1212--55x--77x------|
A|--5x--1010--55x--77x------|
E|------------33x--55x------|

e|----------------|
B|----------------|
G|---77-----------|
D|---77-----------|
A|---55-----------|
E|----------------|








| / slide up
| .. slide down
| h hammer-on
| p pull-off
| ~ vibrato
| + harmonic
| x Mute note
===============================================================
            
Submit corrections

comments powered by Disqus
↑ Back to top | Patent Pending Tabs for Cheer Up Emo Kid. Lyrics for acoustic guitar and electric guitar. Tablatures and chords are parodies/interpretations of the original songs. You may use it for private study, scholarship, research or language learning purposes only