» » »

Pat Benatar, Treat Me Right Tabs (ver.1)

Artists:  A B C D E F G H I J K L M N O P Q R S T U V W X Y Z # 

Treat Me Right Tabs (ver.1)

Pat Benatar Tabs
 Rating:
4/5 (4 votes)
Treat Me Right lessons Tabs too difficult? Try these video lessons and learn fast
                standard tuning

it's a rough sketch that i whipped up in 1 or so hours; decided to post it so 
everyone could fix it to make it a better tab. Would be nice too if someone posted 
a solo-feel free to comment/rate

kttunstallator3

intro:
       pm
e-------------------------------------|
b--------------------6~---------------|
g-2--3--0-0-0-0-0-0--5~-----3---------|
d-2--3----------------------3---3-2~--|
a----1-------------------0--1---------|
e-------------------------------------|

Verse 1:
   palm mute
e-------------------------------------------|
b--2-2-2-2-2-2-2----------------------------|
g--0-0-0-0-0-0-0--3-3-3-3-3-----------2--5--|
d-----------------3-3-3-3-3--5-5-5-5--2--5--|
a-----------------1-1-1-1-1--5-5-5-5-----3--|
e----------------------------3-3-3-3--------|

Intro-chorus:
e-----------------------------------|
b-----------------------------------|
g-----------------------2--3--------|
d------7p5-5------3-2---2--3--5--7--|
a--5~-----8---1~-----3-----1--5--7--|
e-----------------------------3--5--|

chorus (intro repeat)

end-chorus
"open your eyes..."
                        end chrd
e----------3----5----3-------|
b----------3----5----3-------|
g----------0---------0--3----|
d-----------------------3----|
a-(2)-------------------1----|
e--0----------5----3---------|

verse 2 (same)

chorus

end-chorus

Verse 1
You want me to leave, you want me to stay
You ask me to come back, you turn and walk away
You wanna be lovers, and you wanna be friends
I'm losing my patience, you're nearing the end

One of these days you're gonna reach out and find
The one that you count on has left you behind
Don't want to be no martyr, with no one, no say
Oh my, my baby, before it's too late

Chorus:
Open your eyes, maybe you'll see the light

verse 2:
Do you think I'm a fool, well you better think twice
I've had enough baby, it's time you realized
That you can't have it both ways, it's no way to live
You've done all the takin', it's your turn to give

One of these days you're gonna reach out and find
The one that you count on has left you behind
Don't want to be no martyr, with no one, no say
Oh my, my baby, before it's too late

chorus

verse 1 repeat

chorus

Treat Me Right - Treat Me Right
Treat Me Right - Treat Me Right
Treat Me Right - Treat Me Right
Treat Me Right - Treat Me Right
Treat Me Right (Fading Out)

key:
~ vibrato
p pull off
pm palm mute
            
Submit corrections

comments powered by Disqus
↑ Back to top | Pat Benatar Tabs for Treat Me Right. Lyrics for acoustic guitar and electric guitar. Tablatures and chords are parodies/interpretations of the original songs. You may use it for private study, scholarship, research or language learning purposes only