» » »

Passion Pit, The Reeling Bass tabs (ver.2)

Artists:  A B C D E F G H I J K L M N O P Q R S T U V W X Y Z # 

The Reeling Bass tabs (ver.2)

Passion Pit Tabs
Rating:
3/5 (1 vote)
The Reeling lessons Tabs too difficult? Try these video lessons and learn fast
                Intro
G|-------------------------------------|
D|-------------------------------------|
A|------------------6-6-6-6666-6-6-666-|
E|4-4-4-4444-4-4-444-------------------|

Verse - use loads of FUZZ
G|-------------------5-55-5--3-33-3-|
D|--3-33-3---6-66-6-----------------|
A|-----------------3--3--3--1-1--1--|
E|1--1--1--4--4--4------------------|

Chorus - Synth Bass, an octave lower than this
G|-----8-88-----8-88---------------------|
D|6-6-6----6-6-6-------------------------|
A|-------------------6-6-6-666-6-6-6-666-|
E|---------------------------------------|

Break
G|------------------------------------------|
D|------------------------------------------|
A|------------------------------------------|
E|5~----4~-----1~----3-4~----3-1~----3-4~---|
            
Submit corrections

comments powered by Disqus
↑ Back to top | Passion Pit Bass for The Reeling. Lyrics for acoustic guitar and electric guitar. Tablatures and chords are parodies/interpretations of the original songs. You may use it for private study, scholarship, research or language learning purposes only