» » »

The Reeling Bass tabs (ver.1)

Artists:  A B C D E F G H I J K L M N O P Q R S T U V W X Y Z # 

The Reeling Bass tabs (ver.1)

Passion Pit
Rating:
0/5 (0 votes)

Hard to play? Try these video lessons and learn fast.
                
This whole song uses a bass synth effect, you can just probably use fuzz distortion and
close to the sound they have here. for the chorus, the bass is clean.
Tunning:
D A D G

verses:(rhythm is like this, count "1...2..1.2..1.2.3"


------------------------------------5-----5-----5-------3----3----3-----------|
----3---3----3------4---4----4------------------------------------------------|
----------------------------------3------3---3-3-----1-------1--1-1-----------|
-3-----3--3-3----4-----4--4-4-------------------------------------------------|


chorus: (clean, periods over numbers mean theyre short notes)

"look at me, oh look at me, is this the way ill always been? oh nooo oh nooo

                   . . .                        . . .
-----------------------------------------------------------------------------|
-----------------------------------------------------------------------------|
-------------------6-6-6------------------------6-6-6------------------------|
--6-----6------6-------------6-------6-------6---------1-1-1-1-1-1-1-1-1-1-1-|

interlude: ( not 100% correct but i like the way it sounds this way with 2 notes instead 
just one)

-9---------8-------5------5--7--8-----8--7--5-----5--7--8------------------|
-7---------6-------3------3--5--6-----6--5--3-----3--5--6------------------|
---------------------------------------------------------------------------|
---------------------------------------------------------------------------|
            
Hard to play? Try these video lessons and learn fast. | Correct




comments powered by Disqus
↑ Back to top | Tablatures and chords are parodies/interpretations of the original songs. You may use it for private study, scholarship, research or language learning purposes only