» » »

Little Secrets Bass tabs (ver.1)

Artists:  A B C D E F G H I J K L M N O P Q R S T U V W X Y Z # 

Little Secrets Bass tabs (ver.1)

Passion Pit
Rating:
5/5 (1 vote)

Hard to play? Try these video lessons and learn fast.
                
on piano. So, just used the root notes from that video and made the bass lines. The
uses a synth effect for the whole ( you could use fuzz dist to get close to the sound) 
except the pre chorus part, thats clean. At first i thought that the chorus bass part did a
more jumping around than what i tabbed out but the synth effect he has going makes it 
that way. i didnt put the rhythm down for this song really so youll need to figure it out.

Tunning: Drop D
D A D G

intro / chorus:

--------------------------------------------------------------|
--------------------------------------------------------------|
-1-1-1-1-1-1-----------------3-3-3-3-3-3-3-3--5-5-5-5-5-5-5-5-|
-------------3-3-3-3-3-3-3-3----------------------------------|

-------------------------------------------------------------|
-------------------------------------------------------------|
-1-1-1-1-1-1--3-3-3-3-3-3-3--0-0-0-0-0-0-0--5-5-5-5-5-5-5-5--|
-------------------------------------------------------------|

this part is played in the chorus right before they go back
into a verse, its also used as a small interlude before the
2nd verse.

-------------------------------------------------------------|
-------------------------------------------------------------|
1---1-1-----------0---0-0------------------------------------|
--------1--1-1-1----------0--0-0-0---------------------------|

verse: (yes theres 4 different notes to the verse, not just 3, listen close to the 
:D )

----------------------------------------------------------------|
--------0-------------------------------------------------------|
-3--3-----0-1---------------------------------------------------|
----------------------------------------------------------------|

this is the pre chorus: (only part in the song played clean).
--------------------------------------------------------------|
--------------------------------------------------------------|
-8-8-10-12-13---13-13-13-12----------------------------8-8-8--|
----------------------------12---12-12-12-14-10---10-10-------|


2nd interlude: (this part might actually be played by a synth keyboard but i tabbed it
bass anyways. if this is a bass, i really want whatever it is theyre using ! anyways,
fuzz distortion w/ delay might get this part close to the recording. this part has a 
rhythm so have fun getting it down.

---------------------------------------------------------------------------|
---------------------------------------------------------------------------|
-1-1-1-1-1-1-1-1-1-1---------------------3-3-3-3-3-3-3-3-3-3-3-3-3-3-3-3-3-|
---------------------3-3-3-3-3-3-3-3-3-3-----------------------------------|

---------------------------------------------------------------------------|
-0-0-0-0-0-0-0-0--0--------------------------------------------------------|
---------------------3-3-3-3-3-3-3-3-3-3-3-3-3-3--1-1-1-1-1-1-1-1-1-1-1-1--|
---------------------------------------------------------------------------|

---------------------------------------------------------------------------|
---------------------------------------------------------------------------|
-12-12-12-12-12-12--13-13-13--13-13----------------------------------------|
---------------------------------------------------------------------------|

.....and thats it. theres some parts like fills i didnt put in this tab because well,
really easy to figure out.
            
Hard to play? Try these video lessons and learn fast. | Correct




comments powered by Disqus
↑ Back to top | Tablatures and chords are parodies/interpretations of the original songs. You may use it for private study, scholarship, research or language learning purposes only