» » »

I've Got Your Number Bass tabs (ver.1)

Artists:  A B C D E F G H I J K L M N O P Q R S T U V W X Y Z # 

I've Got Your Number Bass tabs (ver.1)

Passion Pit
Rating:
0/5 (0 votes)

Hard to play? Try these video lessons and learn fast.
                

PLEASE rate this tab :)


Note: This is a tab of a live version, as the studio version is all keyboards. 

=====
VERSE
=====

Bass does nothing for most of verse, until -

G|-13-13/18-181818-|
D|-----------------|
A|-----------------|
E|-----------------|

==========
PRECHORUS
==========

G|-------|-------|-------|---------|
D|-------|-------|-------|---------|
A|-1-----|-2-----|-4-----|4----464-|
E|-------|-------|-------|---------|


G|-------|-------|-------|----------|
D|-------|-------|-------|----------|
A|-1-----|-2-----|-4-----|-55555555-|
E|-------|-------|-------|----------|

======
CHORUS
======

G|----------|----------|----------|----------|
D|----------|----------|----------|----------|
A|-66666666-|-44444444-|-33333333-|-22222222-|
E|----------|----------|----------|----------|


G|----------|----------|----------|----------|
D|----------|----------|----------|----------|
A|-99999999-|-66666666-|-44444444-|-4~~~~~~\-|
E|----------|----------|----------|----------|

================
AFTER 1ST CHORUS
================

G|-13-13/18-181818-|
D|-----------------|
A|-----------------|
E|-----------------|


REPEAT VERSE, PRECHORUS AND CHORUS

=================
LAST VERSE / OUTRO
=================


G|----/8-8--|-----6-6--|----------|----4--4--|
D|------8-8-|------6-6-|----------|-----4--4-|
A|--6-------|-4--------|-3-3-3-3--|2-2-------|
E|----------|----------|----------|----------|

G|----------|------8-8-|------6-6-|--8-6-----|
D|----------|----------|----------|------8-6-|
A|-99999999-|-66666-6--|-44444-4--|-4--------|
E|----------|----------|----------|----------| 

Play all above three times, then end on

G|----|
D|----|
A|-6--|
E|----|


Enjoy, and again, please rate :)
            
Hard to play? Try these video lessons and learn fast. | Correct




comments powered by Disqus
↑ Back to top | Tablatures and chords are parodies/interpretations of the original songs. You may use it for private study, scholarship, research or language learning purposes only